Peace
Grammatrain ( the late great Grammatrain )
Flying

I'm not sure if this is right, I haven't heard the song in a while, but this is how I play it.

Intro:
-------------0-----------------0---------
-----------------0-2-0-------------0-2-0-
-2-2-2-2h3-----------2-2-2-2h3-----------
---------------3-----------------3-------

Verse:
-------------0-----------------0---------
-----------------0-2-0-------------0-2-0-
-2-2-2-2h3-----------2-2-2-2h3-----------
---------------3-----------------3-------

-----------------------------0-----------
---0-0-0-0-----------------------0-2-0---
-1---------3-2-3-1h2-2-2-2h3-------------
-------------------------------3---------  2x

Chorus:
-----------------------------------------
-----0-----------0-------------------0---
-3-3---3-2-3-3-3---3-2-3-2-0h2-0h2-3-----
-----------------------------------------


-------------------------0----------------
-----------------------------0-2-0--------
-3-3-3-2-0-2-2---2-2-2-3------------------
--------------3-----------3---------------

I dont have the bridge yet, hope this helps!

QUESTIONS OR COMMENTS E-MAIL [email protected]


Текст, аккорды и табулатура для песни "Peace", исполняет "Grammatrain".
Используемые в песне аккорды можно найти в разделе Как брать аккорды. Аккорды для шестиструнной гитары. Другие песни можно найти на нашем сайте, воспользовавшись алфавитным указателем вверху страницы.


Слушать онлайн Peace ()


GrammatrainPeace () на Яндекс.Музыке


 
Ошибка в тексте? Выделите ошибку и нажмите Ctrl+Enter