Song: Believe
Artist: Grammatrain
CD: Lonely House
benJAMIN'

*Song in drop D tuning*
Intro
Bass line:  play it with some speed!
G-----------------------------------------------|
D-----------------------------------------------|
A-----------------------------------------------|
D---5--3--0--3--3---5--3--0--3--3--3--0---------|

Guitar:
e-----------------------------------------------------------------------------------------------------|
B-----------------8--8--8--8---------------------8--8--8--8----------------------8--8--8--8-----------|
G---7--7--7--7----------------------7--7--7--7-----------------------7--7--7--7-----------------------|
D------------------------------7--7----------------------------7--7----------------------------7--7---|
A-----------------------------------------------------------------------------------------------------|
D-----------------------------------------------------------------------------------------------------|

e-----------------------------------------------------------|
B---8--8--8---------------Riff for chorus as well-----------|
G---7--7--7-------------------------------------------------|
D---7--7--7---------5--3--0--3--3---5--3--0--3--3--3--0-----|
A-------------------5--3--0--3--3---5--3--0--3--3--3--0-----|
D-------------------5--3--0--3--3---5--3--0--3--3--3--0-----|

Verse:   Use feedback and harmonics on guitar

Chorus:   Use chorus riff

Just before solo:
Riff  (2x)  bass does this during solo
G----------------------------------------------------------|
D---5---3--------------3----5---3-------------3--3---5-----|
A----------5---3-------3-----------5---3------3--3---5-----|
D------------------5---3------------------5---3--3---5-----|

Solo in key of F  (relative major to Dm)  be creative!!

End solo on a D5 and let it ring

End song on chorus riff


Any questions, comments, or death threats, e-mail me at [email protected]


Текст, аккорды и табулатура для песни "Believe", исполняет "Grammatrain".
Используемые в песне аккорды можно найти в разделе Как брать аккорды. Аккорды для шестиструнной гитары. Другие песни можно найти на нашем сайте, воспользовавшись алфавитным указателем вверху страницы.


Слушать онлайн Believe


GrammatrainBelieve на Яндекс.Музыке


 
Ошибка в тексте? Выделите ошибку и нажмите Ctrl+Enter