Вступление/куплеты/припев:
----------------| ------------------|
----------------| ------------------|
--9------7------| ------------------|
--9------7------| --7------9--------|x2
--7------5------| --7------9--------|
----------------| --5------7--------|
Вот, собственно, они самые, куплеты-то:
----------------| ------------------|
----------------| ------------------|
--9------7------| ------------------|
--9------7------| --7------9--------|x4
--7------5------| --7------9--------|
----------------| --5------7--------|
От врагов хранят отчизну Ильича и т.д.
----------------| ------------------|    -------------------|
----------------| ------------------|    -------------------|
---6------------| --2------4--------|    -------------------|
---6------------| --2------4--------|x2  ---7--------9------|
---4------------| --0------2--------|    ---7--------9------|
----------------| ------------------|    ---5--------7------|
Который день, который год и т.д.         Ты будешь спать спокойно 
                                                Ведь ты щедро охраняем
Соло:
-----------------------9--7--|
-------9-10-9----------------|
--9-11--------11-9-11--------|
-----------------------------|x4
-----------------------------|
-----------------------------|
От врагов хранят отчизну Ильича
Дети Феликса Эдмундовичача
Чтобы небо было ясным над страной
Чтоб земль стелилась пухом под тобой и подо мной
        Который день, который год
        Достойно ест и спит народ
        Ты будешь спать спокойно
        Ведь ты щедро охраняем КГБ, КГБ
Наша служба и опасна, и трудна
И на первый взгляд как будто не видна
Если кто-то кое-где у нас порой
Мы успеем, мы поможем, ой-ой-ой-ой-ой-ой-ой
        Который день, который год
        Достойно ест и спит народ
        Ты будешь жить достойно
        Ведь ты щедро опекаем КГБ, КГБ
        Который день, который год
        Достойно ест и спит народ
        Ты будешь жить достойно
        Ведь ты щедро опекаем КГБ, КГБ, КГБ
        Ты щедро опекаем КГБ, КГБ


Текст, аккорды и табулатура для песни "КГБ", исполняет "Гражданская Оборона".
Используемые в песне аккорды можно найти в разделе Как брать аккорды. Аккорды для шестиструнной гитары. Другие песни можно найти на нашем сайте, воспользовавшись алфавитным указателем вверху страницы.


 
Ошибка в тексте? Выделите ошибку и нажмите Ctrl+Enter