Riff 2.
     (Am)          (C)             (Amb6)             
1|--0----0------|--0----0------|--0-----1----0---------|
2|--1----1------|--1----1------|--1----------------3^1-|
3|--2----2------|--0----0------|--2--2-----------------|
4|--2----2------|--2----2------|--3--------------------|
5|--0----0------|--3----3------|--0--------------------|
6---|--3----3------------------|

Riff 1.
     (Am)          (C)             (Amb6)    (A#m5)
1|--0----0------|--0----0------|--0----0----|--1----1----|
2|--1----1------|--1----1------|--1----1----|--1----1----|
3|--2----2------|--0----0------|--2----2----|--2----2----|
4|--2----2------|--2----2------|--3----3----|--3----3----|
5|--0----0------|--3----3------|--0----0----|--0----0----|
6---|--3----3--------|

Возможно аккорд (Amb6) и (A#m5) берется с басом (До) на 5 струне!?!
Я точно не помню, но в клипе вроде было так.


Riff 1.
(Am)    (C)         (Amb6)  (A#m5)
КОГДА ВЫХОДИШЬ ТЫ ВСЕГО НА ПЯТЬ МИНУТ 
МНЕ КАЖЕТСЯ ЧТО  ЭТО НАВСЕГДА
Я НА ТЕБЯ СМОТРЮ В ОКНО НО ВСЕ РАВНО
Я ЗНАЮ ЧТО МИНУТЫ ЭТИ ВРУТ.

СОТНИ ЛЕТ ВМЕСТЕ НА СВЕТЕ БЕЛОМ
МЫ СТАЛИ С ТОБОЙ ЕДИНЫМ ЦЕЛЫМ
В ДВА РАЗА ДОЛЬШЕ ИМЯ-ОТЧЕСТВО
В ДВА РАЗА БОЛЬШЕ НАШЕ ОДИНОЧЕСТВО

Riff 2.
(Am)(C)(Amb6)
ЭТО СИЛЬНЕЕ МЕНЯ
ЭТО БОЛЬНЕЕ ОГНЯ
Я НИКОГДА НЕ КРИЧУ
ТОЛЬКО ТЕБЯ Я ХОЧУ

ЭТО СТРАШНЕЕ БЕДЫ
ЭТО ВАЖНЕЕ ВОДЫ
ЭТО СИЛЬНЕЕ МЕНЯ
ЭТО СИЛЬНЕЕ МЕНЯ

МЫ ТРАВОЙ ПРОРОСЛИ ДРУГ В ДРУГА
В УЗЕЛКИ ЗАВЯЗАЛИСЬ ТУГО
ЗАЦЕПИЛИСЬ КОРНЯМИ СУДЕБ
НУ Я ЖЕ ВИЖУ ЧТО С НАМИ БУДЕТ

ЧУЖАЯ УЛЫБКА СПАСАЕТ ВНЕЗАПНО
ТРУДНО БЫТЬ БОГОМ - МИР ПЕРЕВЕРНУТЬ
ТЫ ЗНАЕШЬ НАДО УСПЕТЬ И МОЖЕТ БЫТЬ 
САМОУБИЙСТВО ОТЛОЖИМ НА ЗАВТРА


Текст, аккорды и табулатура для песни "Это сильнее меня", исполняет "Гости из будущего".
Используемые в песне аккорды можно найти в разделе Как брать аккорды. Аккорды для шестиструнной гитары. Другие песни можно найти на нашем сайте, воспользовавшись алфавитным указателем вверху страницы.


 
Ошибка в тексте? Выделите ошибку и нажмите Ctrl+Enter