e---------------------------------------------------
h---------------------------------------------------
g-----------2---------1-----------------------------
d---0-0-0-0-----0-1-0---4-2-----------3-------3-2---
a-----------------------------0-0-0-1---0h1-1-------
e---------------------------------------------------
 второй раз немного подругому

e---------------------------------------------------
h---------------------------------------------------
g---------1-----------------------------------------
d-0-0-0-0---4-2----------3-------3-2----------------
a----------------0-0-0-1---0h1-1--------------------
e---------------------------------------------------


Текст, аккорды и табулатура для песни "Starshine", исполняет "Gorillaz".
Используемые в песне аккорды можно найти в разделе Как брать аккорды. Аккорды для шестиструнной гитары. Другие песни можно найти на нашем сайте, воспользовавшись алфавитным указателем вверху страницы.


 
Ошибка в тексте? Выделите ошибку и нажмите Ctrl+Enter