[ Standard Tunning ]
 
E A D G B E

F --1-3-3-2-1-1--|
B --x-2-4-4-4-2--| or --7-9-9-8-7-7--|
Em --0-2-2-0-0-0--| or --x-7-9-9-8-7--|
Am --x-0-2-2-1-0--|
D --x-x-0-2-3-2--|
G --3-2-0-0-3-3--|



Ok, this is the way you have to play the Intro:

F B Em B
E -1--1--------2--------2--------------2-------2--|
B -1-----1-----4-----4-----8--8--------4----4-----|
G -2--------2--4--4--------9-----9-----4--4-------|
D -3-----------4-----------9--------9--4----------|
A -3-----------2-----------7-----------2----------|
E -1----------------------------------------------|



Intro:

[ F B Em B ] x4


F B Em
Dejalo
B F B Em
si quieres continuar (hermano)
B Am D G
sal ilumina tu vida
Em B
todo el cielo aplastandote
B
dime que har?s
F B Em
Enfrentalo
B F B
ilumina ese amor
Em B
antes que se vaya
Am D G Em
algo siempre te entristese
B
cuando todo va bien
B
que pasa contigo?
B
que pasa contigo?


[ F B Em B ] x8


F B Em
Dejalo
B F B Em
si quieres continuar
B F B Em
no ocultes tu alma al sol
B Am D
tienes una vida preciosa
G Em B
de que sirve si solo
B
muerte sobre necesidad
B
que pasa?
B
que pasa contigo?
B
que pasa contigo mi hermano?
B
Que pasa contigo?


Outro: [ play B until the end ]

Escucha a tu propia voz
salva tu amor
que pasa contigo?

Antes que se vaya
si todo va bien
que pasa contigo?

Mirate a ti mismo
enfrentalo
que pasa contigo mi hermano
ven animate
que pasa contigo?


Текст, аккорды и табулатура для песни "Latin Simone Que Pasa Contigo", исполняет "Gorillaz".
Используемые в песне аккорды можно найти в разделе Как брать аккорды. Аккорды для шестиструнной гитары. Другие песни можно найти на нашем сайте, воспользовавшись алфавитным указателем вверху страницы.


 
Ошибка в тексте? Выделите ошибку и нажмите Ctrl+Enter