Guitar 1
e|-------3------------------------| --
B|-------3------------------------|   
G|---0-0-0------------------------|    played all the time
D|---0-0-0---0-2-0-5-0------------|   /
A|---2-2-2------------------------|   /
E|---3-3-3------------------------| --/

Guitar 2 (played after the chorus part)
e|--9-9-9-9-7-7-9-----9-9-9-9-7-7-9-----9-9-9-9-7-7-9-|
B|----------------------------------------------------|
G|----------------------------------------------------|
D|----------------------------------------------------|
A|----------------------------------------------------|
E|----------------------------------------------------|

e|--9-9-7-6-4-2-0-2/4-|
B|--------------------|
G|--------------------|
D|--------------------|
A|--------------------|
E|--------------------|


Текст, аккорды и табулатура для песни "12d3", исполняет "Gorillaz".
Используемые в песне аккорды можно найти в разделе Как брать аккорды. Аккорды для шестиструнной гитары. Другие песни можно найти на нашем сайте, воспользовавшись алфавитным указателем вверху страницы.


 
Ошибка в тексте? Выделите ошибку и нажмите Ctrl+Enter