Song: The Young and the Hopeless
Artist: Good Charlotte
Album: The Young and the Hopeless
Track: 12

They play the song in Eb tuning,
so if you want to be able to play along with the song, tune to Eb. (I think)

Verse (play each note multiple times)
G--------------------------------------------
D--------------------------------------------
A----4-0-----4-0-----------------------------
E--0-------0---------------------------------

Pre-Chorus
G--------------------------------------------
D--------------------------------------------
A--4---7----4---7----------------------------
E----5---7----5---7--------------------------

Chorus
G--------------------------------------------
D--------------------------------------------
A-----4--0--2---------4--0--2----------------
E--0---------------0-------------------------

(there is a part where he says “I don’t care” for the second time where I don’t
know what to do, so I just strum muted notes, it only lasts about 2 seconds)

then play the verse again, then the pre-chorus, then the chorus

Bridge Part 1
NOTE: the bass does not play the first line of the bridge, it is just guitar,
the bass joins on the second time.
G--------------------------------------------
D--------------------------------------------
A--4-3-2------4-3----------------------------
E--------------------------------------------

Bridge Part 2
G--------------------------------------------
D--------------------------------------------
A--222222222-4-3-22222222-4-3-222222222------
E--000000000-----00000000-----000000000------

Then play the chorus again, then the end when they say “I don’t care...”
a bunch of times just play Bridge Part 2.


Текст, аккорды и табулатура для песни "Young And Hopeless", исполняет "Good Charlotte".
Используемые в песне аккорды можно найти в разделе Как брать аккорды. Аккорды для шестиструнной гитары. Другие песни можно найти на нашем сайте, воспользовавшись алфавитным указателем вверху страницы.


 
Ошибка в тексте? Выделите ошибку и нажмите Ctrl+Enter