Here is yet another tab, posted by me, if you want
anymore good charlotte tabs just write it in my post thanks.




----------------------------------------------|
----------------------------------------------|
-77------------------77-----------------------|
-77--77-7--55-5-7-7--77--77-7--5--------------|
-55--77-7--55-5-7-7--55--77-7--5-xxx-xxx------|
-55--55-5--33-3-5-5--55--55-5--3-xxx-xxx------|

--------------------------------------------------
--------------------------------------------------
-7----7-----77--9--10---------------1212--11-9----
-7----7-----xx--x--x-----7----7-----x-x---x--x----
-5-xx-5-xx--55--7--9-----7-xx-7-xx--1010--9--7----
-5-xx-5-xx------------x--5-xx-5-xx-------------x--

----------------------------------------------|
----------------------------------------------|
------------66--7--9---------------99-77-66---|
-5----5-----xx--x--x----7----7-----xx-xx-xx---|
-5-xx-5-xx--44--5--7----7-xx-7-xx--77-55-44---|
-3-xx-3-xx-----------x--5-xx-5-xx-----------0-|

...................................................


Текст, аккорды и табулатура для песни "The Anthem (ver 10)", исполняет "Good Charlotte".
Используемые в песне аккорды можно найти в разделе Как брать аккорды. Аккорды для шестиструнной гитары. Другие песни можно найти на нашем сайте, воспользовавшись алфавитным указателем вверху страницы.


 
Ошибка в тексте? Выделите ошибку и нажмите Ctrl+Enter