SAY ANYTHING
                          As recorded by Good Charlotte
                  (From the 2002 Album THE YOUNG AND HOPELESS)

Music by Good Charlotte
Transcribed by Matt Kelliher

           B                 Esus2/B                F#                    E
      x 2 4 4 4 2          x 2 4 4 5 2          2 4 4 3 2 2          0 2 2 1 0 0

Gtr I (E A D G) - Bass
Gtr II (E A D G B E) - Clean Electric
Gtr III (E A D G B E) - Acoustic (Plays the chords above the tab)
Gtr IV (E A D G B E) - Distorted

  Gtr I
  H    E E E E   Q  E S E. E E E   Q  E S E. E E E   Q  E S E. E E E
|--------------|-----------------|-----------------|-------------------|
|--------------|-----------------|-----------------|-------------------|
|--------------|-----------------|-----------------|-------------------|
|-7----7-4-2-4-|-0--0-0-0--0-0-4-|-7--7-7-9--7-4-2-|-0--0-0-0--0-0-4---|


  Gtr II
  Q  E H           Q  E H            Q  E H            E E E Q    Q.
|----------------|-----------------|-----------------|----------------------|
|----------------|-----------------|-----------------|------------4---------|
|----------------|-----------------|-----------------|-------4--------------|
|------1---------|------2----------|------1----------|-----4----------------|
|----2-----------|----2------------|----2------------|---2------------------|
|----------------|-0---------------|-----------------|-0--------------------|
|(A seven string should be used to play the B note, but just using the bass
| is fine because it's basically the same note so I left it out.)
| Gtr I
| H      E E E E   Q  E S E. E E E   Q  E S E. E E E   Q   E S E. E  E E
|----------------|-----------------|-----------------|----------------------|
|----------------|-----------------|-----------------|----------------------|
|----------------|-----------------|-----------------|----------------------|
|-7------7-4-2-4-|-0--0-0-0--0-0-4-|-7--7-7-9--7-4-2-|-0---0-0-0--0--0-4----|


($$$$$)
  Q  E H       E   Q  E H        E   Q  E H        E   E E E Q    Q.
|----------------|-----------------|-----------------|----------------------|
|----------------|-----------------|-----------------|------------4---------|
|----------------|-----------------|-----------------|-------4--------------|
|------1---------|------2----------|------1----------|-----4----------------|
|----2-----------|----2------------|----2------------|---2------------------|
|----------------|-0---------------|-----------------|-0--------------------|
|
| H      E E E E   Q  E S E. E E E   Q  E S E. E E E   Q   E S E. E  E E
|----------------|-----------------|-----------------|----------------------|
|----------------|-----------------|-----------------|----------------------|
|----------------|-----------------|-----------------|----------------------|
|-7------7-4-2-4-|-0--0-0-0--0-0-4-|-7--7-7-9--7-4-2-|-0---0-0-0--0--0-4----|


  Q  E H       E   Q  E H        E   Q  E H        E   E E E Q    Q.
|----------------|-----------------|-----------------|-------------------|
|----------------|-----------------|-----------------|------------4------|
|----------------|-----------------|-----------------|-------4-----------|
|------1---------|------2----------|------1----------|-----4-------------|
|----2-----------|----2------------|----2------------|---2---------------|
|----------------|-0---------------|-----------------|-0-----------------|
|
| H      E E E E   Q  E S E. E E E   Q  E S E. E E E   Q   E S E. E  E E
|----------------|-----------------|-----------------|-------------------|
|----------------|-----------------|-----------------|-------------------|
|----------------|-----------------|-----------------|-------------------|
|-7------7-4-2-4-|-0--0-0-0--0-0-4-|-7--7-7-9--7-4-2-|-0---0-0-0--0--0-4-|


  B                      Esus2/B
  Q  E S E   S E E S S   Q  E S E  S E E S S
  |  | | |   | | | | |   |  | | |  | | | | |
  /  / / /   / / / / /   /  / / /  / / / / /

  Q  E H           E     Q  E H          E
|----------------------|---------------------|
|----------------------|---------------------|
|----------------------|---------------------|
|------1---------------|------2--------------|
|----2-----------------|----2----------------|
|----------------------|-0-------------------|
|
| H        E   E E E     Q  E S E.   E E E
|----------------------|---------------------|
|----------------------|---------------------|
|----------------------|---------------------|
|-7--------7---4-2-4---|-0--0-0-0----0-0-4---|


  B                     Esus2/B
  Q E S E S  E E S S    Q E S E S  E  E S S
  | | | | |  | | | |    | | | | |  |  | | |
  / / / / /  / / / /    / / / / /  /  / / /

  Q   E H        E      E E E Q    Q.
|---------------------|----------------------|
|---------------------|------------4---------|
|---------------------|-------4--------------|
|-------1-------------|-----4----------------|
|-----2---------------|---2------------------|
|---------------------|-0--------------------|
|
| Q   E S E. E E E      Q   E S E. E  E E
|---------------------|----------------------|
|---------------------|----------------------|
|---------------------|----------------------|
|-7---7-7-9--7-4-2----|-0---0-0-0--0--0-4----|


  B                     Esus2/B
  Q E S E S E E S S     Q E S E S  E E S S
  | | | | | | | | |     | | | | |  | | | |
  / / / / / / / / /     / / / / /  / / / /

  Q   E H       E       Q   E H        E
|---------------------|---------------------|
|---------------------|---------------------|
|---------------------|---------------------|
|-------1-------------|-------2-------------|
|-----2---------------|-----2---------------|
|---------------------|-0-------------------|
|
| H       E E E E       Q   E S E. E E E
|---------------------|---------------------|
|---------------------|---------------------|
|---------------------|---------------------|
|-7-------7-4-2-4-----|-0---0-0-0--0-0-4----|


  B                      Esus2/B
  Q E S E S  E E  S S     Q E  S  E  S   E  E  S S
  | | | | |  | |  | |     | |  |  |  |   |  |  | |
  / / / / /  / /  / /     / /  /  /  /   /  /  / /

  Q   E H         E       E E  E  Q      Q
|----------------------|-----------------2----------|
|----------------------|----------------------------|
|----------------------|----------------------------|
|-------1--------------|-------4--------------------|
|-----2----------------|----4-----4-----------------|
|----------------------|--2-------------------------|
|
| Q   E S E. E E  E       Q    E  S  E.  E  E  E
|----------------------|----------------------------|
|----------------------|----------------------------|
|----------------------|----------------------------|
|-7---7-7-9--7-9-12----|-12---12-12-12--12-12-12----|


  B                    F#
  W                    W
  |                    |
  /                    /

  H          Q     Q   H.            Q
|--------------------|---------------------|
|------------------4-|---------------------|
|--------------------|-3-------------3-----|
|--------------------|---------------------|
|--------------------|---------------------|
|--------------------|---------------------|
|
| Q  E S E S E E S S   Q   E S E S E E S S
|--------------------|---------------------|
|--------------------|---------------------|
|-2--2-2-2-2-2-2-2-2-|---------------------|
|--------------------|-2---2-2-2-2-2-2-2-2-|


  E
  Q E S E S E E S S     Q E S E S E E S S
  | | | | | | | | |     | | | | | | | | |
  / / / / / / / / /     / / / / / / / / /

  E E E H           E   E E E H             E
|-------2-------------|-------2---------------|
|---------------------|-----------------------|
|---------------------|-----------------------|
|-----2---------------|-----2-----------------|
|---2-----------------|---2-------------------|
|-0-------------------|-0---------------------|
|
| Q   E S E S E E S S   Q   E S E S E E S S
|---------------------|-----------------------|
|---------------------|-----------------------|
|---------------------|-----------------------|
|-0---0-0-0-0-0-0-0-0-|-0---0-0-0-0-0-0-0-0---|


  B                      F#
  W                      W
  |                      |
  /                      /

  H        Q     Q       H.            Q
|----------------------|---------------------|
|----------------4-----|---------------------|
|----------------------|-3-------------3-----|
|----------------------|---------------------|
|----------------------|---------------------|
|----------------------|---------------------|
|
| Q  E S E   S E E S S   Q   E S E S E E S S
|----------------------|---------------------|
|----------------------|---------------------|
|-2--2-2-2---2-2-2-2-2-|---------------------|
|----------------------|-2---2-2-2-2-2-2-2-2-|


  E
  Q   E S E S E E S S   Q   E S E S E E S S
  |   | | | | | | | |   |   | | | | | | | |
  /   / / / / / / / /   /   / / / / / / / /

  E E E H         E     E E E H         E
|-------2-------------|-------2-------------|
|---------------------|---------------------|
|---------------------|---------------------|
|-----2---------------|-----2---------------|
|---2-----------------|---2-----------------|
|-0-------------------|-0-------------------|
|
| Q   E S E S E E S S   Q   E S E S E E S S
|---------------------|---------------------|
|---------------------|---------------------|
|---------------------|---------------------|
|-0---0-0-0-0-0-0-0-0-|-0---0-0-0-0-0-0-0-0-|


  B                    F#
  Q  E S E S E E S S   Q  E S E S E E S S
  |  | | | | | | | |   |  | | | | | | | |
  /  / / / / / / / /   /  / / / / / / / /

  Gtr IV
  Q  E S E S E E S S   Q  E S E S E E S S
|--------------------|--------------------|
|--------------------|--------------------|
|-4--4-4-4-4-4-4-4-4-|--------------------|
|-4--4-4-4-4-4-4-4-4-|-4--4-4-4-4-4-4-4-4-|
|-2--2-2-2-2-2-2-2-2-|-4--4-4-4-4-4-4-4-4-|
|--------------------|-2--2-2-2-2-2-2-2-2-|
|
| Q  E S E S E E S S   Q  E S E S E E S S
|--------------------|--------------------|
|--------------------|--------------------|
|-2--2-2-2-2-2-2-2-2-|--------------------|
|--------------------|-2--2-2-2-2-2-2-2-2-|


  E
  Q  E S E S E E S S   Q  E S E S E E S S
  |  | | | | | | | |   |  | | | | | | | |
  /  / / / / / / / /   /  / / / / / / / /

  Q  E S E S E E S S   Q  E S E S E E S S
|--------------------|---------------------|
|--------------------|---------------------|
|--------------------|---------------------|
|-2--2-2-2-2-2-2-2-2-|-2--2-2-2-2-2-2-2-2--|
|-2--2-2-2-2-2-2-2-2-|-2--2-2-2-2-2-2-2-2--|
|-0--0-0-0-0-0-0-0-0-|-0--0-0-0-0-0-0-0-0--|
|
| Q  E S E S E E S S   Q  E S E S E E S S
|--------------------|---------------------|
|--------------------|---------------------|
|--------------------|---------------------|
|-0--0-0-0-0-0-0-0-0-|-0--0-0-0-0-0-0-0-0--|


  B                    F#
  Q  E S E S E E S S   Q  E S E S E E S S
  |  | | | | | | | |   |  | | | | | | | |
  /  / / / / / / / /   /  / / / / / / / /

  Q  E S E S E E S S   Q  E S E S E E S S
|--------------------|--------------------|
|--------------------|--------------------|
|-4--4-4-4-4-4-4-4-4-|--------------------|
|-4--4-4-4-4-4-4-4-4-|-4--4-4-4-4-4-4-4-4-|
|-2--2-2-2-2-2-2-2-2-|-4--4-4-4-4-4-4-4-4-|
|--------------------|-2--2-2-2-2-2-2-2-2-|
|
| Q  E S E S E E S S   Q  E S E S E E S S
|--------------------|--------------------|
|--------------------|--------------------|
|-2--2-2-2-2-2-2-2-2-|--------------------|
|--------------------|-2--2-2-2-2-2-2-2-2-|


  E
  Q  E S E S E E S S   Q  E S E S E E S S
  |  | | | | | | | |   |  | | | | | | | |
  /  / / / / / / / /   /  / / / / / / / /

  Q  E S E S E E S S   Q  E S E S E E S S
|--------------------|---------------------|
|--------------------|---------------------|
|--------------------|---------------------|
|-2--2-2-2-2-2-2-2-2-|-2--2-2-2-2-2-2-2-2--|
|-2--2-2-2-2-2-2-2-2-|-2--2-2-2-2-2-2-2-2--|
|-0--0-0-0-0-0-0-0-0-|-0--0-0-0-0-0-0-0-0--|
|
| Q  E S E S E E S S   Q  E S E S E E S S
|--------------------|---------------------|
|--------------------|---------------------|
|--------------------|---------------------|
|-0--0-0-0-0-0-0-0-0-|-0--0-0-0-0-0-0-0-0--|


  1. (go back to the ($$$$$) above)| 2.  (Go on from here)
  Gtr II                           | Gtr IV
  E E E E E E E E E E E E E E E E  | E E E E E E E E E E E E E E E E
|---------------------------------*|------------------------------------||
|---------------------------------*|-----------------------------------o||
|---------------------------------*|------------------------------------||
|-9---8---6-----------------------*|-9-9-8-8-6-6------------------------||
|-------------9---7---6-----9-----*|-------------9-9-7-7-6-----9-------o||
|---7---7---7---7---7---7s9---9-7-*|-----------------------7s9---9-7----||
|
|                                    E E E E E E E E E E E E E E E E
|---------------------------------*|------------------------------------||
|---------------------------------*|-9-9-8-8-6-6-----------------------o||
|---------------------------------*|-------------9-9-7-7-6-----9-------o||
|---------------------------------*|-----------------------7s9---9-7----||


  W
|-----------------|-----------------|-----------------|-----------------|
|-----------------|-----------------|-----------------|-----------------|
|-----------------|-----------------|-----------------|-----------------|
|-9---------------|-----------------|-----------------|-----------------|
|-9---------------|-----------------|-----------------|-----------------|
|-7---------------|-----------------|-----------------|-----------------|
|
| E E E E E E E E   E E E E E E E E   E E E E E E E E   E E E E E E E E
|-----------------|-----------------|-----------------|-----------------|
|-----------------|-----------------|-----------------|-----------------|
|-2-2-2-2-2-2-2-2-|-----------------|-----------------|-----------------|
|-----------------|-2-2-2-2-2-2-2-2-|-0-0-0-0-0-0-0-0-|-0-0-0-0-0-0-0-0-|


  B                 F#                E
  W                 W                 W
  |                 |                 |
  /                 /                 /

  Gtr II
  E E E Q   E Q     E E E Q   E Q     E E E Q   E Q     E E E E E E E E
|-----------------|-----------------|-----------------|-------------------|
|-----4-----4-----|-----4-----4-----|-----4-----4-----|-----4-------4-----|
|---4---4-----4---|---4---4-----4---|---4---4-----4---|---4---4---4---4---|
|-----------------|-----------------|-----------------|-------------------|
|-2---------------|-----------------|-----------------|-------------------|
|-----------------|-2---------------|-0---------------|-0-------0---------|
|
| E E E E E E E E   E E E E E E E E   E E E E E E E E   E E E E E E E E
|-----------------|-----------------|-----------------|-------------------|
|-----------------|-----------------|-----------------|-------------------|
|-2-2-2-2-2-2-2-2-|-----------------|-----------------|-------------------|
|-----------------|-2-2-2-2-2-2-2-2-|-0-0-0-0-0-0-0-0-|-0-0-0-0-0-0-0-0---|


  E
  W               W               W               E E E E E E S S S S
  |               |               |               | | | | | | | | | |
  /               /               /               / / / / / / / / / /

  Gtr IV
    PM----------|   PM----------|   PM--------------------|
  E E E E E E E E E E E E E E E E E E E E E E E E E E E E E E S S S S
|----------------------------------------------------------------------|
|----------------------------------------------------------------------|
|----------------------------------------------------------------------|
|-2-2-2-2-2-2-2-2-2-2-2-2-2-2-2-2-2-2-2-2-2-2-2-2-2-2-2-2-2-2-2-2-2-2--|
|-2-2-2-2-2-2-2-2-2-2-2-2-2-2-2-2-2-2-2-2-2-2-2-2-2-2-2-2-2-2-2-2-2-2--|
|-0-0-0-0-0-0-0-0-0-0-0-0-0-0-0-0-0-0-0-0-0-0-0-0-0-0-0-0-0-0-0-0-0-0--|
|
| E E E E E E E E E E E E E E E E E E E E E E E E E E E E E E E E
|----------------------------------------------------------------------|
|----------------------------------------------------------------------|
|----------------------------------------------------------------------|
|-0-0-0-0-0-0-0-0-0-0-0-0-0-0-0-0-0-0-0-0-0-0-0-0-0-0-0-0-0-0-0-0------|


  B                    F#
  Q  E S E S E E S S   Q  E S E S E E S S
  |  | | | | | | | |   |  | | | | | | | |
  /  / / / / / / / /   /  / / / / / / / /

  Q  E S E S E E S S   Q  E S E S E E S S
|--------------------|--------------------|
|--------------------|--------------------|
|-4--4-4-4-4-4-4-4-4-|--------------------|
|-4--4-4-4-4-4-4-4-4-|-4--4-4-4-4-4-4-4-4-|
|-2--2-2-2-2-2-2-2-2-|-4--4-4-4-4-4-4-4-4-|
|--------------------|-2--2-2-2-2-2-2-2-2-|
|
| Q  E S E S E E S S   Q  E S E S E E S S
|--------------------|--------------------|
|--------------------|--------------------|
|-2--2-2-2-2-2-2-2-2-|--------------------|
|--------------------|-2--2-2-2-2-2-2-2-2-|


  E
  Q  E S E S E E S S   Q  E S E S E E S S
  |  | | | | | | | |   |  | | | | | | | |
  /  / / / / / / / /   /  / / / / / / / /

  Q  E S E S E E S S   Q  E S E S E E S S
|--------------------|---------------------|
|--------------------|---------------------|
|--------------------|---------------------|
|-2--2-2-2-2-2-2-2-2-|-2--2-2-2-2-2-2-2-2--|
|-2--2-2-2-2-2-2-2-2-|-2--2-2-2-2-2-2-2-2--|
|-0--0-0-0-0-0-0-0-0-|-0--0-0-0-0-0-0-0-0--|
|
| Q  E S E S E E S S   Q  E S E S E E S S
|--------------------|---------------------|
|--------------------|---------------------|
|--------------------|---------------------|
|-0--0-0-0-0-0-0-0-0-|-0--0-0-0-0-0-0-0-0--|


  B                    F#
  Q  E S E S E E S S   Q  E S E S E E S S
  |  | | | | | | | |   |  | | | | | | | |
  /  / / / / / / / /   /  / / / / / / / /

  Q  E S E S E E S S   Q  E S E S E E S S
|--------------------|--------------------|
|--------------------|--------------------|
|-4--4-4-4-4-4-4-4-4-|--------------------|
|-4--4-4-4-4-4-4-4-4-|-4--4-4-4-4-4-4-4-4-|
|-2--2-2-2-2-2-2-2-2-|-4--4-4-4-4-4-4-4-4-|
|--------------------|-2--2-2-2-2-2-2-2-2-|
|
| Q  E S E S E E S S   Q  E S E S E E S S
|--------------------|--------------------|
|--------------------|--------------------|
|-2--2-2-2-2-2-2-2-2-|--------------------|
|--------------------|-2--2-2-2-2-2-2-2-2-|


  E
  Q  E S E S E E S S   Q  E S E S E E S S
  |  | | | | | | | |   |  | | | | | | | |
  /  / / / / / / / /   /  / / / / / / / /

  Q  E S E S E E S S   Q  E S E S E E S S
|--------------------|---------------------|
|--------------------|---------------------|
|--------------------|---------------------|
|-2--2-2-2-2-2-2-2-2-|-2--2-2-2-2-2-2-2-2--|
|-2--2-2-2-2-2-2-2-2-|-2--2-2-2-2-2-2-2-2--|
|-0--0-0-0-0-0-0-0-0-|-0--0-0-0-0-0-0-0-0--|
|
| Q  E S E S E E S S   Q  E S E S E E S S
|--------------------|---------------------|
|--------------------|---------------------|
|--------------------|---------------------|
|-0--0-0-0-0-0-0-0-0-|-0--0-0-0-0-0-0-0-0--|


  B                    F#
  Q  E S E S E E S S   Q  E S E S E E S S
  |  | | | | | | | |   |  | | | | | | | |
  /  / / / / / / / /   /  / / / / / / / /

  Q  E S E S E E S S   Q  E S E S E E S S
|--------------------|--------------------|
|--------------------|--------------------|
|-4--4-4-4-4-4-4-4-4-|--------------------|
|-4--4-4-4-4-4-4-4-4-|-4--4-4-4-4-4-4-4-4-|
|-2--2-2-2-2-2-2-2-2-|-4--4-4-4-4-4-4-4-4-|
|--------------------|-2--2-2-2-2-2-2-2-2-|
|
| Q  E S E S E E S S   Q  E S E S E E S S
|--------------------|--------------------|
|--------------------|--------------------|
|-2--2-2-2-2-2-2-2-2-|--------------------|
|--------------------|-2--2-2-2-2-2-2-2-2-|


  E
  Q  E S E S E E S S   Q  E S E S E E S S
  |  | | | | | | | |   |  | | | | | | | |
  /  / / / / / / / /   /  / / / / / / / /

  Q  E S E S E E S S   Q  E S E S E E S S
|--------------------|---------------------|
|--------------------|---------------------|
|--------------------|---------------------|
|-2--2-2-2-2-2-2-2-2-|-2--2-2-2-2-2-2-2-2--|
|-2--2-2-2-2-2-2-2-2-|-2--2-2-2-2-2-2-2-2--|
|-0--0-0-0-0-0-0-0-0-|-0--0-0-0-0-0-0-0-0--|
|
| Q  E S E S E E S S   Q  E S E S E E S S
|--------------------|---------------------|
|--------------------|---------------------|
|--------------------|---------------------|
|-0--0-0-0-0-0-0-0-0-|-0--0-0-0-0-0-0-0-0--|


  B                    F#
  Q  E S E S E E S S   Q  E S E S E E S S
  |  | | | | | | | |   |  | | | | | | | |
  /  / / / / / / / /   /  / / / / / / / /

  Q  E S E S E E S S   Q  E S E S E E S S
|--------------------|--------------------|
|--------------------|--------------------|
|-4--4-4-4-4-4-4-4-4-|--------------------|
|-4--4-4-4-4-4-4-4-4-|-4--4-4-4-4-4-4-4-4-|
|-2--2-2-2-2-2-2-2-2-|-4--4-4-4-4-4-4-4-4-|
|--------------------|-2--2-2-2-2-2-2-2-2-|
|
| Q  E S E S E E S S   Q  E S E S E E S S
|--------------------|--------------------|
|--------------------|--------------------|
|-2--2-2-2-2-2-2-2-2-|--------------------|
|--------------------|-2--2-2-2-2-2-2-2-2-|


  E
  Q  E S E S E E S S   Q  E S E S E E S S
  |  | | | | | | | |   |  | | | | | | | |
  /  / / / / / / / /   /  / / / / / / / /

  Q  E S E S E E S S   Q  E S E S E E S S
|--------------------|---------------------|
|--------------------|---------------------|
|--------------------|---------------------|
|-2--2-2-2-2-2-2-2-2-|-2--2-2-2-2-2-2-2-2--|
|-2--2-2-2-2-2-2-2-2-|-2--2-2-2-2-2-2-2-2--|
|-0--0-0-0-0-0-0-0-0-|-0--0-0-0-0-0-0-0-0--|
|
| Q  E S E S E E S S   Q  E S E S E E S S
|--------------------|---------------------|
|--------------------|---------------------|
|--------------------|---------------------|
|-0--0-0-0-0-0-0-0-0-|-0--0-0-0-0-0-0-0-0--|


  E E E E E E E E   E E E E E E E E   W
|-----------------|-----------------|------|
|-----------------|-----------------|------|
|-----------------|-----------------|------|
|-9-9-8-8-6-6-----|-----------------|-9----|
|-------------9-9-|-7-7-6-----9-----|-9----|
|-----------------|-------7s9---9-7-|-7----|
|
| E E E E E E E E   E E E E E E E E   W
|-----------------|-----------------|------|
|-9-9-8-8-6-6-----|-----------------|------|
|-------------9-9-|-7-7-6-----9-----|------|
|-----------------|-------7s9---9-7-|-7----|


Duration Legend
---------------
W - whole; H - half; Q - quarter; E - 8th; S - 16th; T - 32nd; X - 64th;
a - acciaccatura
+ - note tied to previous; . - note dotted; .. - note double dotted


Текст, аккорды и табулатура для песни "Say Anything", исполняет "Good Charlotte".
Используемые в песне аккорды можно найти в разделе Как брать аккорды. Аккорды для шестиструнной гитары. Другие песни можно найти на нашем сайте, воспользовавшись алфавитным указателем вверху страницы.


 
Ошибка в тексте? Выделите ошибку и нажмите Ctrl+Enter