Riot Girl
Good Charlotte
Standard Tuning
Comments: [email protected]

Im pretty sure its accurate..
Intro:
Guitar 1:
E|------------------------------------------------------------------|
B|------------------------------------------------------------------|
G|---77-8-1010------------------------------------------------------|
D|---77-8-1010------------------------------------------------------|
A|---55-6-8-8-------------------------------------------------------|
E|------------------------------------------------------------------|

(while Guitar 2 plays)
E|-------------------------------------------------------------------|
B|-------------------------------------------------------------------|
G|------------88888888-1010101010101010-88888888---------------------|
D|---88888888-88888888--8-8-8-8-8-8-8-8-88888888---------------------|
A|---88888888-66666666--8-8-8-8-8-8-8-8-66666666---------------------|
E|---66666666--------------------------------------------------------|

E|-------------------------------------------------------------------|
B|-------------------------------------------------------------------|
G|------------88888888-1010101010101010----77-8-1010-----------------|
D|---88888888-88888888--8-8-8-8-8-8-8-8----77-8-1010-----------------|
A|---88888888-66666666--8-8-8-8-8-8-8-8----55-6-8-8------------------|
E|---66666666--------------------------------------------------------|

Guitar 2:
E|-------------------------------------------------------------------|
B|---44433333---------44433333---------44433333---------44433333-----|
G|-----------53-53-53---------53-53-53---------53-53-53--------------|
D|-------------------------------------------------------------------|
A|-------------------------------------------------------------------|
E|-------------------------------------------------------------------|

Verse:
Guitar 2:
All Palm Muted
E|-------------------------------------------------------------------|
B|-------------------------------------------------------------------|
G|------------88888888-1010101010101010-88888888---------------------|
D|---88888888-88888888--8-8-8-8-8-8-8-8-88888888---------------------|
A|---88888888-66666666--8-8-8-8-8-8-8-8-66666666---------------------|
E|---66666666--------------------------------------------------------|

E|-------------------------------------------------------------------|
B|-------------------------------------------------------------------|
G|------------88888888-1010101010101010------------------------------|
D|---88888888-88888888--8-8-8-8-8-8-8-8------------------------------|
A|---88888888-66666666--8-8-8-8-8-8-8-8------------------------------|
E|---66666666--------------------------------------------------------|

Guitar 1 :
No Palm Mute
E|------------------------------------------------------------------|
B|------------------------------------------------------------------|
G|---77-8-1010------------------------------------------------------|
D|---77-8-1010------------------------------------------------------|
A|---55-6-8-8-------------------------------------------------------|
E|------------------------------------------------------------------|

Pre-Chorus:
Both Guitars
E|-------------------------------------------------------------------|
B|-------------------------------------------------------------------|
G|------------88888888-1010101010101010-88888888---------------------|
D|---88888888-88888888--8-8-8-8-8-8-8-8-88888888---------------------|
A|---88888888-66666666--8-8-8-8-8-8-8-8-66666666---------------------|
E|---66666666--------------------------------------------------------|

E|-------------------------------------------------------------------|
B|-------------------------------------------------------------------|
G|------------88888888-1010101010101010-88888------------------------|
D|---88888888-88888888-1010101010101010-88888------------------------|
A|---88888888-66666666--8-8-8-8-8-8-8-8-66666------------------------|
E|---66666666--------------------------------------------------------|

Chorus :
Guitar 1 :
E|-------------------------------------------------------------------|
B|-------------------------------------------------------------------|
G|---------------------88888888-7777-5555----------------------------|
D|---88888888-33333333-88888888-7777-5555----------------------------|
A|---88888888-33333333-66666666-5555-3333----------------------------|
E|---66666666-11111111-----------------------------------------------|
                                            
E|-------------------------------------------------------------------|
B|-------------------------------------------------------------------|
G|---------------------88888888-7777-5555----------------------------|
D|---88888888-33333333-88888888-7777-5555----------------------------|
A|---88888888-33333333-66666666-5555-3333----------------------------|
E|---66666666-11111111-----------------------------------------------|

Verse 2:
Guitar 1:
All Palm Muted
E|-------------------------------------------------------------------|
B|-------------------------------------------------------------------|
G|-------------------------------------------------------------------|
D|-----3---3--3----5---5--5---7---7--7-----5---5--5------------------|
A|---11--11--1--33---33--3--55--55--5---33---33--3-------------------|
E|-------------------------------------------------------------------|

E|------------------------------------------------------------------|
B|------------------------------------------------------------------|
G|------------------------------------------------------------------|
D|-----3---3--3----5---5--5---7---7--7------------------------------|
A|---11--11--1--33---33--3--55--55--5-------------------------------|
E|------------------------------------------------------------------|

Guitar 2:
No Palm Mute
E|------------------------------------------------------------------|
B|------------------------------------------------------------------|
G|---77-8-1010------------------------------------------------------|
D|---77-8-1010------------------------------------------------------|
A|---55-6-8-8-------------------------------------------------------|
E|------------------------------------------------------------------|

Pre-Chorus:
Both Guitars
E|-------------------------------------------------------------------|
B|-------------------------------------------------------------------|
G|------------88888888-1010101010101010-88888888---------------------|
D|---88888888-88888888--8-8-8-8-8-8-8-8-88888888---------------------|
A|---88888888-66666666--8-8-8-8-8-8-8-8-66666666---------------------|
E|---66666666--------------------------------------------------------|


E|-------------------------------------------------------------------|
B|-------------------------------------------------------------------|
G|------------88888888-1010101010101010-8----------------------------|
D|---88888888-88888888-1010101010101010-8----------------------------|
A|---88888888-66666666--8-8-8-8-8-8-8-8-6----------------------------|
E|---66666666--------------------------------------------------------|

Chorus :
Both Guitars
E|--------------------------------------------------------------------|
B|--------------------------------------------------------------------|
G|---------------------88888888-7777-5555-----------------------------|
D|---88888888-33333333-88888888-7777-5555-----------------------------|
A|---88888888-33333333-66666666-5555-3333-----------------------------|
E|---66666666-11111111------------------------------------------------|
                                            
E|-------------------------------------------------------------------|
B|-------------------------------------------------------------------|
G|---------------------88888888-7777-5555----------------------------|
D|---88888888-33333333-88888888-7777-5555----------------------------|
A|---88888888-33333333-66666666-5555-3333----------------------------|
E|---66666666-11111111-----------------------------------------------|

Riff A :
Guitar 2:
E|-------------------------------------------------------------------|
B|---44433333---------44433333---------44433333---------44433333-----|
G|-----------53-53-53---------53-53-53---------53-53-53--------------|
D|-------------------------------------------------------------------|
A|-------------------------------------------------------------------|
E|-------------------------------------------------------------------|
Continued…
E|------------------------------------------------------------------|
B|---4-88-66-44-33--------------------------------------------------|
G|------------------------------------------------------------------|
D|------------------------------------------------------------------|
A|------------------------------------------------------------------|
E|------------------------------------------------------------------|

Guitar 1:
E|-------------------------------------------------------------------|
B|-------------------------------------------------------------------|
G|------------88888888-1010101010101010-88888888---------------------|
D|---88888888-88888888--8-8-8-8-8-8-8-8-88888888---------------------|
A|---88888888-66666666--8-8-8-8-8-8-8-8-66666666---------------------|
E|---66666666--------------------------------------------------------|

E|-------------------------------------------------------------------|
B|-------------------------------------------------------------------|
G|------------88888888-1010101010101010------------------------------|
D|---88888888-88888888--8-8-8-8-8-8-8-8------------------------------|
A|---88888888-66666666--8-8-8-8-8-8-8-8------------------------------|
E|---66666666--------------------------------------------------------|

Verse 3:
Guitar 1:
X4
E|------------------------------------------------------------------|
B|------------------------------------------------------------------|
G|--7------------5------------3-------------------------------------|
D|--7------------5------------3-------------------------------------|
A|--5------------3------------1-------------------------------------|
E|------------------------------------------------------------------|

Guitar 2:
How ever many times needed
E|------------------------------------------------------------------|
B|---4--------------------------------------------------------------|
G|----3p0-3---------------------------------------------------------|
D|------------------------------------------------------------------|
A|------------------------------------------------------------------|
E|------------------------------------------------------------------|

Last Chorus:
Both Guitars
E|-------------------------------------------------------------------|
B|-------------------------------------------------------------------|
G|---------------------88888888-7777-5555----------------------------|
D|---88888888-33333333-88888888-7777-5555----------------------------|
A|---88888888-33333333-66666666-5555-3333----------------------------|
E|---66666666-11111111-----------------------------------------------|
                                            

E|-------------------------------------------------------------------|
B|-------------------------------------------------------------------|
G|---------------------88888888-7777-5555----------------------------|
D|---88888888-33333333-88888888-7777-5555----------------------------|
A|---88888888-33333333-66666666-5555-3333----------------------------|
E|---66666666-11111111-----------------------------------------------|

E|-------------------------------------------------------------------|
B|-------------------------------------------------------------------|
G|------------88888888-1010101010101010-88888888---------------------|
D|---88888888-88888888--8-8-8-8-8-8-8-8-88888888---------------------|
A|---88888888-66666666--8-8-8-8-8-8-8-8-66666666---------------------|
E|---66666666--------------------------------------------------------|

Part 2:
Guitar 1:
X2
E|-------------------------------------------------------------------|
B|-------------------------------------------------------------------|
G|------------88888888-1010101010101010-88888888---------------------|
D|---88888888-88888888--8-8-8-8-8-8-8-8-88888888---------------------|
A|---88888888-66666666--8-8-8-8-8-8-8-8-66666666---------------------|
E|---66666666--------------------------------------------------------|

Guitar 2:
E|--------------------------------------------------------------------|
B|---44433333---------44433333---------444333111-444333111-431-431----|
G|-----------53-53-53---------53-53-53------------------------3---3---|
D|--------------------------------------------------------------------|
A|--------------------------------------------------------------------|
E|--------------------------------------------------------------------|

E|------------------------------------------------------------------|
B|---431--431-------------------------------------------------------|
G|------3----3------------------------------------------------------|
D|------------------------------------------------------------------|
A|------------------------------------------------------------------|
E|------------------------------------------------------------------|

Guitar 1:
End with
E|------------------------------------------------------------------|
B|------------------------------------------------------------------|
G|---33333----------------------------------------------------------|
D|---33333----------------------------------------------------------|
A|---11111----------------------------------------------------------|
E|------------------------------------------------------------------|

Great Song have fun!
So sry its kidna long,ill try to make my next one shorter...8)


Текст, аккорды и табулатура для песни "Riot Girl", исполняет "Good Charlotte".
Используемые в песне аккорды можно найти в разделе Как брать аккорды. Аккорды для шестиструнной гитары. Другие песни можно найти на нашем сайте, воспользовавшись алфавитным указателем вверху страницы.


 
Ошибка в тексте? Выделите ошибку и нажмите Ctrl+Enter