Intro: 
G:-------------------------------------------------------|
D:-------------------------------------------------------|
A:4-44-444-44-4------------------------------------------|
E:-------------4-44-444-44-4-2-22-222-22-2-4-44-444-44-4-|
  
  Verse:
G:-----------------------------------------------------------|
D:-----------------------------------------------------------|
A:444-4----------444-4----------444-4------------------------|
E:------4-44-444-------2-22-222-------4-44-4-222222222222222-|
  
  Pre-Chorus:
G:------------------------------------------------------|
D:------------------------------------------------------|
A:-11111111----------4444444444444444-11111111----------|
E:----------22222222---------------------------22222222-|

G:------------------|
D:------------------|
A:------------------|
E:-4444444444444444-|
  
  Chorus:
G:-----------------------------------------------------|
D:-----------------------------------------------------|
A:4--------------4--------------4--------------4-------|
E:--44-22-44444----44-22-55544----44-22-44444----44-22-|

  Bridge:
G:--------------------------------------------------------|
D:--------------------------------------------------------|
A:-----------------------------------444444---------------|
E:666666-444444-222222-444444-666666--------4444444444444-|

  End:
G:------------------------------------------------|
D:------------------------------------------------|
A:44-----------44-----------44-----------44-------|
E:---44-22-44-----44-22-44-----44-22-44-----44-22-|

G:---------------------------------------------------|
D:---------------------------------------------------|
A:44-----------44-----------44-----------44----------|
E:---44-22-44-----44-22-44-----44-22-44-----44-22-44-|

G:-------------------------|
D:-------------------------|
A:44-----------44--------4-|
E:---44-22-44-----44-2-4---|

Song Order:

Intro (after guitar)
Verse x2
Pre-Chorus
Chorus
Intro
Verse x2
Pre-Chorus
Chorus
Bridge
Rest
End


Текст, аккорды и табулатура для песни "Anthem", исполняет "Good Charlotte".
Используемые в песне аккорды можно найти в разделе Как брать аккорды. Аккорды для шестиструнной гитары. Другие песни можно найти на нашем сайте, воспользовавшись алфавитным указателем вверху страницы.


 
Ошибка в тексте? Выделите ошибку и нажмите Ctrl+Enter