#----------------------------------PLEASE NOTE--------------------------------#
#This file is the author's own work and represents their interpretation of the#
#song. You may only use this file for private study, scholarship, or research.#
#-----------------------------------------------------------------------------#

We Are The Normal by the Goo Goo Dolls
(tabbed by [email protected])
Goo Goo Dolls Web Site: The World of Goo
http://soong.heinous.net/~goo/index.html
(viola intro by Johnny O)

Tune your b to c (ala So Far Away)
Chords:
Am - x02200 or 577x00
G4/6 - 355400
F7 - 133200
C - x35500

Intro: viola arranged for guitar
(standard tuning)

Note: Apply generous amounts of vibrato and slide into and out of notes 
as you hear fit


e -------------------------------------------------------------------
B -------------------------------------------------------------------
G --5---5-54---------------4---5-----6p5----5---6p5----//8---5h6p5-
D --------------7---7--5---7-------7p5-------------------------------
A -------------------------------------------------------------------
E -------------------------------------------------------------------


e -------------------------------------------------------------------
B --8--10--10--8-----------------------------------------------------
G ---------------9//10---9h10---97---9----9//10---9---75---7p5---
D -------------------------------------------------------------------
A -------------------------------------------------------------------
E -------------------------------------------------------------------


e -------------------------------------------------------------------
B ------------------------------6p5----5h6p5---8---6---5h6p5-------
G --975----------4---5-------------------------------------7---5-
D ----------7---5-7--------7p5---------------------------------------
A -------------------------------------------------------------------
E -------------------------------------------------------------------


e ------------------------------------------------------
B ------------------------------------------------------
G --5p4///754-------------4-----4-------------------
D ---------------------7---5--------------7---5---7-----
A ------------------------------------------------------
E ------------------------------------------------------

(intro - under string intro)
Am-Am-G4/6-F7
(Play 8 times)

(verse)
      Am         C           G4/6      F7       
It's a beautiful day I heard everybody say 
    Am         C               G4/6      F7       
The sun shines down for all of us 
Am        C       G4/6            F7       
Just the same you know I like the rain 
Am            C        G4/6      F7       
That ain't so obvious

(verse)
It's a beautiful sight I guess everybody's right 
This day belongs to all of us 
Even still I like with a chill 
That ain't so obvious

(chorus)
Am-C       G4/6-F7       
We are the normal 
Am             C
We live and we die 
     G4/6      F7       
With no reason why 
Am-C       G4/6-F7       
We are the normal 
Am             C
We live and we die 
     G4/6      F7       
With no reason why

(verse)
It's a beautiful life and I've got it in my sights 
And that ain't for all of us 
It's a beautiful sound 
When my life comes crashin down 
That ain't so obvious 

(verse)
It's a beautiful sin and I'm doin' it again 
And that ain't for all of us 
It's a beautiful life and I've got it in my sights 
Ain't that so obvious

(chorus)
We are the normal 
We live and we die 
With no reason why 
We are the normal 
We live and we die 
With no reason why...

(string break - play intro 6 times)

(chorus)
We are the normal 
We live and we die 
With no reason why 
We are the normal 
We live and we die 
G4/6
With no reason why 
F7
There's no reason why...

F7-F7-F7-F7-F7-F7-F7-F7

We are the normal 
We live and we die 
With no reason why 
We are the normal 
We live and we die 
  G4/6-G4/6-G4/6-F7
With no reason why

-----
Thanks to Rich Krissel
-----

This file is copyright [email protected], 1997. You are 
free to use it for your personal or educational use, but permission must 
be granted to post this transcription. Thank you. 


Текст, аккорды и табулатура для песни "We Are The Normal", исполняет "Goo Goo Dolls".
Используемые в песне аккорды можно найти в разделе Как брать аккорды. Аккорды для шестиструнной гитары. Другие песни можно найти на нашем сайте, воспользовавшись алфавитным указателем вверху страницы.


Слушать онлайн We Are The Normal


Goo Goo DollsWe Are The Normal на Яндекс.Музыке


 
Ошибка в тексте? Выделите ошибку и нажмите Ctrl+Enter