Song:   Think About Me
Band:   Goo Goo Dolls
Album:  Gutterflower
Tabber: [email protected]


Notes: This tab is to prove to huntersgte, that I can write quality tabs. 
       This song is in a weird tuning, as usual for the Goo Goo Dolls, but that's what makes them so great! 
       This is an excellent song; I hope you enjoy playing it. I haven't figured the solo, and some of the little fill
       in(s) yet but when I do I'll add them. Please don't steal this tab, if you want to put it on your site, email me
       for permission, thanks!!........Enjoy!!

------------------------

Tuning -REALLY IMPORTANT!

e down to d
b up to d
g same
d same
a same
e down to d

------------------------

Chords used:

d-0-----------
d-0-----------
g-0-----------       (G5 open)
d-5-----------
a-5-----------
e-5-----------

d-0-----------
d-0-----------
g-0-----------       (G/F# open)
d-4-----------
a-5-----------
e-5-----------

d-0-----------
d-0-----------
g-0-----------       (D5 open)
d-7-----------
a-5-----------
e-x-----------

d-0-----------
d-0-----------
g-0-----------       (E5 open)
d-9-----------
a-7-----------
e-x-----------

d-0-----------
d-0-----------
g-0-----------       (C5 open)
d-5-----------
a-3-----------
e-x-----------


d-0-----------
d-0-----------
g-0-----------       (B5 open)
d-9-----------
a-9-----------
e-9----------


d-0-----------
d-0-----------
g-0-----------       (A5 open)
d-7-----------
a-7-----------
e-7-----------





Intro (Guitar 1 -acoustic guitar, on its own once, and then distorted guitar on the top)

   (G5 open) (G/F# open)
d--0-0-0-0-0-0-0-0-0-0-x
d--0-0-0-0-0-0-0-0-0-0-x
g--0-0-0-0-0-0-0-0-0-0-x
d--5-5-5-5-5-4-4-4-4-4-0
a--5-5-5-5-5-5-5-5-5-5-0
d--5-5-5-5-5-5-5-5-5-5-0

then

d-0-0-0-0-0-0-0-0-0-0
d-0-0-0-0-0-0-0-0-0-0
g-0-0-0-0-0-0-0-0-0-0
d-5-5-5-5-5-5-5-5-5-5
a-3-3-3-3-3-3-3-3-3-3
d-x-x-x-x-x-x-x-x-x-x


(Strum as necessary for each chord)

Verse: 


You take a lot of
d-0-----------
d-0-----------
g-0-----------       (D5 open)
d-7-----------
a-5-----------
e-x-----------

Chances with your 
d-0-----------
d-0-----------
g-0-----------       (E5 open)
d-9-----------
a-7-----------
e-x-----------

feelings
d-0-----------
d-0-----------
g-0-----------       (C5 open)
d-5-----------
a-3-----------
e-x-----------

and no one really 
d-0-----------
d-0-----------
g-0-----------       (E5 open)
d-9-----------
a-7-----------
e-x-----------

knows what you 
d-0-----------
d-0-----------
g-0-----------       (D5 open)
d-7-----------
a-5-----------
e-x-----------

feel
d-0-----------
d-0-----------
g-0-----------       (C5 open)
d-5-----------
a-3-----------
e-x-----------

D5                E5              C5 
and fixing is the only way you're dealing
E5                   D5              C5
you turn your pretty head if it gets real


Chorus:
   
   E5                  B5
oh you, you take it so slowly,
         E5            A5
and your eyes, look so lonely,
         C5                         G5 (repeat intro) 
but it's only, when you think about me

(intro over the top)
oh yeah


Verse:

D5        E5                 C5
and i got ahead don't let me speak
E5             D5             C5 
when you got a secret I can't keep
D5               E5               C5
You see a little stranger in your mirror
E5                 D5               C5
the girl you never knew is what you fear


Chorus:
   
   E5                  B5
oh you, you take it so slowly,
         E5            A5
and your eyes, look so lonely,
         C5                         G5 (repeat intro) 
but it's only, when you think about me


(intro over the top)
Oh yeah

(intro over the top)                 (end on C5)
and all you want is something I can't be



Guitar solo

(repeat intro)
and all you want from me is what you need
 

Chorus:
   
   E5                  B5
oh you, you take it so slowly,
         E5            A5
and your eyes, look so lonely,
         C5                        
but it's only, 

   E5                  B5
oh you, you take it so slowly,
         E5            A5
and your eyes, look so lonely,
         C5                         G5 (repeat intro) 
but it's only, when you think about me

(repeat)

and end on G5.

------------------------------------------------------


Текст, аккорды и табулатура для песни "Think About Me", исполняет "Goo Goo Dolls".
Используемые в песне аккорды можно найти в разделе Как брать аккорды. Аккорды для шестиструнной гитары. Другие песни можно найти на нашем сайте, воспользовавшись алфавитным указателем вверху страницы.


Слушать онлайн Think About Me


Goo Goo DollsThink About Me на Яндекс.Музыке


 
Ошибка в тексте? Выделите ошибку и нажмите Ctrl+Enter