----------------------------------------------------------------------------
			     SLIDE - Goo Goo Dolls
----------------------------------------------------------------------------
Tabbed by: MasterXaero*
Email: [email protected]

Tuning: E ->down to-> D#
        B  ->up to->  D#	You might need to
        G  ->up to->  G#	play around with a
	D  ->up to->  D#	capo to prevent
	A  ->up to->  A#	snapping a string
	E ->down to-> D#

| /  slide up
|   slide down
| h  hammer-on
| p  pull-off
| ~  vibrato
| +  harmonic
| x  Mute note

For this song you need to figure out the strumming like in the verses
and choruses. Listen to the song it shouldn't be too hard.

I have indicated where the chords change in relationship to the words
by putting the new chord over the first letter of the word it changes
at. If the note comes before the actual word, then it means that
it is played before the word is sung... sounds complicated but read
it and listen to the song; you'll be able to figure it out.

All fingering is relative to any capo you may use.

-INTRO-

d#|-----0-------0-------0-------0--------|
D#|-------0-------0-------0---0-----0----|
G#|--------------------------------------|
D#|---5-------7-------5------------------|
A#|-7-------5-------3--------------------|
D#|-------------------------5-----4------|

d#|-----0-------0-------0-------0--------|
D#|-------0-------0-------0---0-----0----|
G#|--------------------------------------|
D#|---5-------7-------5------------------|
A#|-7-------5-------3--------------------|
D#|-------------------------5-----4------|

-VERSE 1-

d#|-0------------------------0-----------------------|
D#|-0------------------------0-----------------------|
G#|-0------------------------0-----------------------|
D#|-0------------------------7-----------------------|
A#|-2------------------------5-----------------------|
D#|-2------------------------------------------------|
     Could you whisper in my ear the things you wanna

d#|------0----------------------------------------|
D#|------0----------------------------------------|
G#|------0----------------------------------------|
D#|------5----------------------------------------|
A#|------3----------------------------------------|
D#|-----------------------------------------------|
    feel. I'll give you anything to feel it coming.

d#|-0---------------------------0-----------------|
D#|-0---------------------------0-----------------|
G#|-0---------------------------0-----------------|
D#|-0---------------------------5-----------------|
A#|-2---------------------------7-----------------|
D#|-2---------------------------------------------|
     Do you wake up on your own. I wonder where you

d#|-----0-------------------------------|
D#|-----0-------------------------------|
G#|-----0-------------------------------|
D#|-----5-------------------------------|
A#|-----3-------------------------------|
D#|-------------------------------------|
    are. You live with all your faults.

-BRIDGE-

d#|-------0-----0----------------------------|
D#|---------0---0----------------------------|
G#|-----0-----0-0----------------------------|
D#|-------------5----------------------------|
A#|-3/5---------3----------------------------|
D#|------------------------------------------|
                 I wanna wake up where you are
d#|-------0-----0----------------------------|
D#|---------0---0----------------------------|
G#|-----0-----0-0----------------------------|
D#|-------------5----------------------------|
A#|-3/5---------3----------------------------|
D#|------------------------------------------|
                 I won't say anything at all.

-CHORUS-

d#|-----------------------0--0--0--0--0--0--0--|
D#|-----------------------0--0--0--0--0--0--0--|
G#|-----------------------0--0--0--0--0--0--0--|
D#|-----------------------5--0--5--0--5--0--5--|
A#|-----------------------3--5--3--5--3--5--7--|
D#|--------------------------5-----5-----5-----|
   So why don't you slide?

d#|-------------------------0----0--0--0--0--0--0--|
D#|-------------------------0----0--0--0--0--0--0--|
G#|-------------------------0----0--0--0--0--0--0--|
D#|-------------------------5----0--5--0--5--0--5--|
A#|-------------------------3----5--3--5--3--5--7--|
D#|------------------------------5-----5-----5-----|
   Yeah we're gonna let it slide

-VERSE 2-

d#|-0----------------------------0-------|
D#|-0----------------------------0-------|
G#|-0----------------------------0-------|
D#|-0----------------------------7-------|
A#|-2----------------------------5-------|
D#|-2------------------------------------|
     Don't you love the life you killed?

d#|---------------------0------------------------------|
D#|---------------------0------------------------------|
G#|---------------------0------------------------------|
D#|---------------------5------------------------------|
A#|---------------------3------------------------------|
D#|----------------------------------------------------|
   The priest is on the phone. Your father hit the wall.

d#|----------------------0----------------------|
D#|----------------------0----------------------|
G#|----------------------0----------------------|
D#|----------------------0----------------------|
A#|----------------------2----------------------|
D#|----------------------2----------------------|
   Your ma disowned you. Don't supposed I'll ever 

d#|-0---------------------------0----------------------------|
D#|-0---------------------------0----------------------------|
G#|-0---------------------------0----------------------------|
D#|-5---------------------------3----------------------------|
A#|-7---------------------------5----------------------------|
D#|----------------------------------------------------------|
     know what it means to be a man. Something I can't change.

-BRIDGE-

d#|-------0-----0-------------------------------------|
D#|---------0---0-------------------------------------|
G#|-----0-----0-0-------------------------------------|
D#|-------------5-------------------------------------|
A#|-3/5---------3-------------------------------------|
D#|---------------------------------------------------|
    I'll live around it. I wanna wake up where you are.
    ^^(Approximate timing of words)

d#|-------0-----0-------------------------------------|
D#|---------0---0-------------------------------------|
G#|-----0-----0-0-------------------------------------|
D#|-------------5-------------------------------------|
A#|-3/5---------3-------------------------------------|
D#|---------------------------------------------------|
                 I won't say anything at all.

-CHORUS-

d#|-----------------------0--0--0--0--0--0--0--|
D#|-----------------------0--0--0--0--0--0--0--|
G#|-----------------------0--0--0--0--0--0--0--|
D#|-----------------------5--0--5--0--5--0--5--|
A#|-----------------------3--5--3--5--3--5--7--|
D#|--------------------------5-----5-----5-----|
   So why don't you slide?           Oooo slide

d#|----0-----------0-------------0------------|
D#|----0-----------0-------------0------------|
G#|----0-----------0-------------0------------|
D#|----5-----------0-------------5------------|
A#|----3-----------5-------------3------------|
D#|----------------5--------------------------|
   And I'll do anything you ever dreamed to be

d#|-0--------------0------------0------------0--|
D#|-0--------------0------------0------------0--|
G#|-0--------------0------------0------------0--|
D#|-0--------------5------------0------------5--|
A#|-5--------------3------------5------------7--|
D#|-5---------------------------5---------------|
 complete. Little pieces of the nothing that fall.

d#|---0-------------------0--------------|
D#|---0-------------------0--------------|
G#|---0-------------------0--------------|
D#|---0-------------------5--------------|
A#|---2-------------------7--------------|
D#|---2----------------------------------|
   Oh May, put your arms around me

d#|---------0----------------0----------------0------------0--|
D#|---------0----------------0----------------0------------0--|
G#|---------0----------------0----------------0------------0--|
D#|---------5----------------4----------------5------------0--|
A#|---------3----------------2----------------3------------5--|
D#|--------------------------------------------------------5--|
   What you feel is what you are and what you are is beautiful

d#|---0---------------------0---------------0--|
D#|---0---------------------0---------------0--|
G#|---0---------------------0---------------0--|
D#|---0---------------------5---------------5--|
A#|---2---------------------7---------------3--|
D#|---2----------------------------------------|
   Oh May, do you wanna get married or run away

d#|-------------0--0--0--0--0--0----0--|
D#|-------------0--0--0--0--0--0----0--|
G#|-------------0--0--0--0--0--0----0--|
D#|-------------5--0--5--0--5--0----5--|
A#|-------------3--5--3--5--3--5----7--|
D#|----------------5-----5-----5-------|
   Ooo ooo ooooo.          Oooo oooo.

-CHORUS-

d#|----0-----------0-------------0------------|
D#|----0-----------0-------------0------------|
G#|----0-----------0-------------0------------|
D#|----5-----------0-------------5------------|
A#|----3-----------5-------------3------------|
D#|----------------5--------------------------|
   And I'll do anything you ever dreamed to be

d#|-0--------------0------------0------------0--|
D#|-0--------------0------------0------------0--|
G#|-0--------------0------------0------------0--|
D#|-0--------------5------------0------------5--|
A#|-5--------------3------------5------------7--|
D#|-5---------------------------5---------------|
 complete. Little pieces of the nothing that fall.

d#|---0-------------------0--------------|
D#|---0-------------------0--------------|
G#|---0-------------------0--------------|
D#|---0-------------------5--------------|
A#|---2-------------------7--------------|
D#|---2----------------------------------|
   Oh May, put your arms around me

d#|---------0----------------0----------------0------------0--|
D#|---------0----------------0----------------0------------0--|
G#|---------0----------------0----------------0------------0--|
D#|---------5----------------4----------------5------------0--|
A#|---------3----------------2----------------3------------5--|
D#|--------------------------------------------------------5--|
   What you feel is what you are and what you are is beautiful

d#|---0-----------------------0-------------0--|
D#|---0-----------------------0-------------0--|
G#|---0-----------------------0-------------0--|
D#|---0-----------------------5-------------5--|
A#|---2-----------------------7-------------3--|
D#|---2----------------------------------------|
   Oh May, do you wanna get married or run away

-BRIDGE-

d#|-------0-----0----------------------------|
D#|---------0---0----------------------------|
G#|-----0-----0-0----------------------------|
D#|-------------5----------------------------|
A#|-3/5---------3----------------------------|
D#|------------------------------------------|
                 I wanna wake up where you are

d#|-------0-----0----------------------------|
D#|---------0---0----------------------------|
G#|-----0-----0-0----------------------------|
D#|-------------5----------------------------|
A#|-3/5---------3----------------------------|
D#|------------------------------------------|
                 I won't say anything....

-CHORUS-

d#|----0-----------0-------------0------------|
D#|----0-----------0-------------0------------|
G#|----0-----------0-------------0------------|
D#|----5-----------0-------------5------------|
A#|----3-----------5-------------3------------|
D#|----------------5--------------------------|
   And I'll do anything you ever dreamed to be
   Yeah slide

d#|-0--------------0------------0------------0--|
D#|-0--------------0------------0------------0--|
G#|-0--------------0------------0------------0--|
D#|-0--------------5------------0------------5--|
A#|-5--------------3------------5------------7--|
D#|-5---------------------------5---------------|
 complete. Little pieces of the nothing that fall.
   Yeah slide

d#|----0-----------0-------------0------------|
D#|----0-----------0-------------0------------|
G#|----0-----------0-------------0------------|
D#|----5-----------0-------------5------------|
A#|----3-----------5-------------3------------|
D#|----------------5--------------------------|
   And I'll do anything you ever dreamed to be
   Yeah slide

d#|-0--------------0------------0------------0--|
D#|-0--------------0------------0------------0--|
G#|-0--------------0------------0------------0--|
D#|-0--------------5------------0------------5--|
A#|-5--------------3------------5------------7--|
D#|-5---------------------------5---------------|
 complete. Little pieces of the nothing that fall.
   Yeah slide

-OUTRO-

d#|-0------------------0-------------------0--------------0--|
D#|-0------------------0-------------------0--------------0--|
G#|-0------------------0-------------------0--------------0--|
D#|-3------------------0-------------------3--------------0--|
A#|-5------------------5-------------------5--------------5--|
D#|--------------------5----------------------------------5--|
    Slide between them sheets of all those beds you never knew
   Yeah slide

d#|-0-------------0----0--------------0---------------0------------0--|
D#|-0-------------0----0--------------0---------------0------------0--|
G#|-0-------------0----0--------------0---------------0------------0--|
D#|-3-------------0----3--------------0---------------3------------0--|
A#|-5-------------2----5--------------2---------------5------------2--|
D#|---------------2-------------------2----------------------------2--|
    Slide into my room slide into my room. Yeah we'll run away run away 
    run away
    Yeah slide
								     
d#|-----0-------0-------0-------0--------|
D#|-------0-------0-------0---0-----0----|
G#|--------------------------------------|
D#|---5-------7-------5------------------|
A#|-7-------5-------3--------------------|
D#|-------------------------5-----4------|

d#|-----0-------0-------0-------0---------|
D#|-------0-------0-------0---0-----0-----|
G#|---------------------------------------|
D#|---5-------7-------5-------------------|
A#|-7-------5-------3---------------------|
D#|-------------------------5-----4---5---|

============================================================================


Текст, аккорды и табулатура для песни "Slide", исполняет "Goo Goo Dolls".
Используемые в песне аккорды можно найти в разделе Как брать аккорды. Аккорды для шестиструнной гитары. Другие песни можно найти на нашем сайте, воспользовавшись алфавитным указателем вверху страницы.


Слушать онлайн Slide


Goo Goo DollsSlide на Яндекс.Музыке


 
Ошибка в тексте? Выделите ошибку и нажмите Ctrl+Enter