Tristan Hoogland
[email protected]
http://ussjlegend.cjb.net

Goo Goo Dolls - Nothing Can Change You

TABBED BY THE FOLLOWING:

Nothing Can Change You - as performed by Goo Goo Dolls 

(tabbed by [email protected] and [email protected])

Goo Goo Dolls Web Site: The World of Goo

http://www.musicfanclubs.org/googoodolls/index.htmlTuning: Eb-Ab-Db-Gb-B-eb

(EADGCe down 1/2 step)E5(VII): x799xx

F5(III): xx355xIntro/Verse: eb --0---0-0-x-0-00-0-0--|--0--0-0-0-0-0--0--0-0-0--0--0----

B  --4---4-6-x-6-77-7-7--|--4--4-6-6-7/9--9/11-9-9/11-11----

Gb --4---4-6-x-6-77-7-7--|--4--4-6-6-7/9--9/11-9-9/11-11----

Db --0---0-0-x-0-00-0-0--|--0--0-0-0-0-0--0--0-0-0--0--0----

Ab ----------------------|----------------------------------

Eb ----------------------|----------------------------------Yeah, it's Saturday night

Will I see you around?

I'm comin' to life

Didn't take a long, long time

Still she was comin' from

Well, she took the long way round

And I've only come this farChorus:

E5(VII)

    G5

Now nothing can change you

  C5 G5	      D5	  E5(VII)

When you feel foreign to love

     G5

Your world has a strange view

 C5 G5	        D5		(Back to the verse riff)

Can you tell me things that you're dreaming of?(verse)

Stop fallin' in love

With everything that lets you down

There's someone above

And I know she wears glasses

Sometimes she says it helps her move

I see her in the long ride home

I guess I never spoke too soon(chorus)

Now nothing can change you

When you feel foreign to love

Your world has a strange view

Can you tell me things that you're dreaming of?C5 - G5 (x4)Bridge:

C5     G5           C5   G5

You don't wanna get left behind

F5(VII)   C5        F5(VII)  C5

You wanna find some piece of mind

C5      G5          C5       G5

You say it takes a long time there

F5(VII) C5     F5(VII)    C5

She was there, she was in the crowdSolo: Give me time and I'll get it right.(verse)

You went rollin' along

When everybody wants to ride

Now Joe's never home

Looking at the tableside

Where everything is chained to you know that

You're wakin' up to die inside

Now there's nowhere left to go(chorus)

Now nothing can change you

When you feel foreign to love

Your world has a strange view

And you tell me things that you love(chorus)

Now nothing can change you

When you feel foreign to love

Your world has a strange view

And you tell me things that you're dreaming of Outro:eb --0---0-0-x-0-00-0-0--|--0---0-0-0--0--0--0--0--0----

B  --4---4-6-x-6-77-7-7--|--4---4-6-6/-9--9/11-11-11----

Gb --4---4-6-x-6-77-7-7--|--4---4-6-6/-9--9/11-11-11----

Db --0---0-0-x-0-00-0-0--|--0---0-0-0--0--0--0--0--0----

Ab ----------------------|------------------------------

Eb ----------------------|------------------------------eb --0--0--0--0----0--0--0---0--0--0---

B  --9/11-11-11----9/11-11---9/11-11---

Gb --9/11-11-11----9/11-11---9/11-11---

Db --0--0--0--0----0--0--0---0--0--0---

Ab ------------------------------------

Eb ------------------------------------e--0----0----0--0-----

B--9-/-11---9--7-----

G--9-/-11---9--7-----

D--0----0----0--0-----


Текст, аккорды и табулатура для песни "Nothing Can Change You", исполняет "Goo Goo Dolls".
Используемые в песне аккорды можно найти в разделе Как брать аккорды. Аккорды для шестиструнной гитары. Другие песни можно найти на нашем сайте, воспользовавшись алфавитным указателем вверху страницы.


 
Ошибка в тексте? Выделите ошибку и нажмите Ctrl+Enter