NAME
by GOO GOO DOLLS



 
Drop the low E to D
Raise the G string to A
and drop the B string down to A
 
h - hammer on
/ - slide up
 - slide down
 
Verse:
 
-----0---------0---------0----------0------0-------                       
-------0---------0---------0------0-------0--------
---0-----0---0-----0---0-----0---------------------
---------------------0-----------------------------
-0------------------5------------------------------
-7---------6--------------------4------2------0----
 
-0---0---0-----0-0-0-0-0---0---0---0---0---0----0--0---0--
-0---0---0-----0-0-0-0-0---0---0---0---0---0----0--0---0--
-0---0---0-----0-0-0-0-0---0---0---0---0---0----0--0---0--
-7-9/11-11/14-14-14-14-14-12---7--9/11-11--119-0-119-0--
-0---0---0-----0-0-0-0-0---0---0---0---0---0---12--0--12--
---------------------------------------------------------
 
chorus
Now we're grown up orphans, that never knew their names
---0---------------0----------------0----
---0---------------0----------------0----
---0---------------0----------------0----
---4---------------2----------------0----
---4---------------2----------------0----
---4---------------2----------------0----
 
We don't belong to no one, that's a shame
---0---------------0----------------0----
---0---------------0----------------0----
---0---------------0----------------0----
---4---------------2----------------0----
---4---------------2----------------0----
---4---------------2----------------0----
 
solo (only half of it yet, strum all but low E while playing)
---------------------------------------------0-0-0-0-0-0-------
--0-2-4-4-4-4-2-0--0--2-4-2-0----2-4-5-4-2-4-------------5-4-2-
---------------------------------------------------------------
---------------------------------------------------------------
---------------------------------------------------------------
 
 
-0-----------0-2-2-4-4-4/5-5-5-4-5-5-4-4-5-5-4-4-5-7-9-10-9---
---5-4-2-4-5-------------------------------------------------
--------------------------------------------------------------
--------------------------------------------------------------
--------------------------------------------------------------
--------------------------------------------------------------
 
Ending
 
-0---0---0---0---0---0---0---0--
-0---0---0---0---0---0---0---0--
-0---0---0---0---0---0---0---0--
-9--11--11--11--11---9---0---0--
-0---0---0---0---0---0--12--12--
--------------------------------
 
Lyrics:
 
And even though the moment passed me by, 
        I still can't turn away.
I saw the dreams you never thought you'd lose,
        Tossed along the way.
Letters that you never meant to send,
        Lost and thrown away.
 
Now we're grown up orphans, that never knew their names.
        We don't belong to no one, that's a shame.
You could hide beside me, maybe for a while.
        And I won't tell no one your name, no I won't tell 'em your name.
 
Scars are souveneers you never lose,
        The past is never far.
Did you lose yourself somewhere out there?
        Did you get to be a star?
Don't it make you sad to know that life,
        Is more than who we are.
 
You grew up way too fast, and now there's nothing to believe.
        And re-runs all become our history.
A tired song keeps playing on a tired radio.
        And I won't tell no one your name, no I won't tell 'em your name.
 
I think about you all the time
        but I don't need the same.
If it's lonely where you are come back down,
        and I won't tell no one your name.


#
Here is Name by the Goo Goo Dolls, if you don't want to re-tune your
guitar. If you really must play it this way, do, otherwise retune.
                -- [email protected]
 
[email protected]
[email protected]
[email protected]
-----------------------0-----------------------0 --0---0---------
---0-------------------------------------------------------------
---------------4-----------------2----0--------------------------
(2nd guitar plays 2-4-6-7-9-2-4-6-7-9-7-6-7-6-4-2 on the G 
string during the chords)
 
And even though the moment passed me by, 
        I still can't turn away.
I saw the dreams you never thought you'd lose,
        Tossed along the way.
Letters that you never meant to send,
        Lost and thrown away.
Fm                      E                       Dsus2
Now we're grown up orphans, that never knew their names.
        We don't belong to no one, that's a shame.
You could hide beside me, maybe for a while.
        And I won't tell no one your name, no I won't tell 'em your name.
 
Scars are souveneers you never lose,
        The past is never far.
Did you lose yourself somewhere out there?
        Did you get to be a star?
Don't it make you sad to know that life,
        Is more than who we are.
 
You grew up way too fast, and now there's nothing to believe.
        And re-runs all become our history.
A tired song keeps playing on a tired radio.
        And I won't tell no one your name, no I won't tell 'em your name.
 
(Solo)
(Have one guitar or bass play the chords (or roots), another guitar 
pedals a high e (try 5th fret on the B string), while the other plays the 
solo (this is my feeble attempt at it, but then, no one else has posted 
anything))
 
--------------------------------------------------------------
-----2-2-0-2-0-----0-2-0-----0-2-3-2-0-2-3-5-5-5-5-5-3-2-0----
-2-------------2-2-------2-2-------------------------------2--
 
---------------2-2-4-4-4/5-5-5-4-5-5-4-4-5-5-4-4-5-7-9-10-9---
-5-3-2-0-2-3-5------------------------------------------------
--------------------------------------------------------------
 
(and then just play for a while along these lines until I figure out the 
rest of it, okay? )
 
I think about you all the time
        but I don't need the same.
If it's lonely where you are come back down,
        and I won't tell no one your name.


Goo Goo Dolls - Name
Haven't had time to work on the 2nd guitar part but this is a
much better rendition of the main rythm parts.

Enjoy!

Tuning (low to high)
D
A
D
A
A
E
= - hammer on
/ - slide up
 - slide down


- -----0-----0-----0-----0-----0-----0-----0-----0-----
- -----0-0---0-----0-0---0-----0-0---0---0-----0-------
- ---0---0-0-----0---0-0-----0---0-0-------------------
- -------------------------0---------------------------
- -0-----------0-----------5---------------------------
- -7-----------6-----------------------4-----2-----0---
(Strum Rhythm)
 | | ^ ^ | ^ | | ^ ^ | ^ | | ^ ^ | ^ | | | | | | |
 v v | | v | v v | | v | v v | | v | v v v v v v v


- -0---0---0---0-0-0-0-0---0---0---0--0---0-0-0---0--
- -0---0---0---0-0-0-0-0---0---0---0--0---0-0-0---0--
- -0=2-2/4-4/7-7-7-7-7-7---0=2-2/4-4--42-0-2-42-0--
- -0---0---0---0-0-0-0-0---0---0---0--0---0-0-0---0--
- ---------------------------------------------------
- ---------------------------------------------------


          NAME
==============
    goo goo dolls

tabbed: jeremy kerans ([email protected])

this intro goes with the chords of the previous standard tuning tab. it
sounds great doing this intro and std. chords on one guitar and also playing
the chords of the alternative tuning tab with a second guitar.

intro:

e---------0---------------0----------------0-------------
b-----------------------------------------------------------
g------2----2---------2-----2---------2------2----------
d-------------------------------------0--------------0-----
a---0-----------0----------------0------------------------
e--------------------4--------------------------------------


e-----------------------0----0--0----------
b-----------------------3----3--3----------
g-----------------2----2----2--2----------
d------------0---------0----0--0----------
a---------------------------------------------
e----2--0------------------------------------


questions, comments, corrections:     

           [email protected]

From: [email protected]
Date: Sat, 4 Nov 1995 11:38:05 -0500
Subject: TAB: NAME-Goo Goo Dolls

NAME--goo goo dolls
  
tab: jeremy kerans  ([email protected])

this goes along with the intro i put in. not exactly like the cd, though it
sounds reasonably good.

this part i where i ended the intro
                    
e----0--0-0--------------------------------------0--  strum this
b----3--3-3-----------------0h2----2h3-------3--  chord up
g----2--2-2---------2h4------------------------2--  and down
d----0--0-0--------------------------------------0--   in rhythm
a------------------------------------------------------   a total of
e-------------------------------------------------------  seven times

e----------------------------------------------------------
b-------------0h2--2---2p0-----0--2--0--------------
g-----2h4----------------------2-------------2----------
d----------------------------------------------------------
a----------------------------------------------------------
e----------------------------------------------------------



Текст, аккорды и табулатура для песни "Name", исполняет "Goo Goo Dolls".
Используемые в песне аккорды можно найти в разделе Как брать аккорды. Аккорды для шестиструнной гитары. Другие песни можно найти на нашем сайте, воспользовавшись алфавитным указателем вверху страницы.


Слушать онлайн Name


Goo Goo DollsName на Яндекс.Музыке


 
Ошибка в тексте? Выделите ошибку и нажмите Ctrl+Enter