Band:   Goo Goo Dolls
Song:   It's Over
Album:  Gutterflower
Tabber: [email protected]


Another great song by the Goo's off their new album 'Gutterflower'. 
Please ask me for permission if you want to use this tab on your site thanks!

STANDARD TUNING!!

###################
Chords used:

  Am              
e|--0- 
B|--1-
G|--2-
D|--2-
A|--0-
E|--X-

  Cadd9              
e|--0- 
B|--0-
G|--0-
D|--2-
A|--3-
E|--X-

   A5              
e|--x- 
B|--x-
G|--x-
D|--7-
A|--7-
E|--5-

   G5
e|--x- 
B|--x-
G|--x-
D|--5-
A|--5-
E|--3-

   F5
e|--x- 
B|--x-
G|--x-
D|--3-
A|--3-
E|--1-

   C5
e|--x- 
B|--x-
G|--5-
D|--5-
A|--3-
E|--X-

   C/B5
e|--x- 
B|--x-
G|--5-
D|--5-
A|--2-
E|--X-

###############




Intro

   Am   Cadd9(?)              Am
e|-0-----0--------0-----------0------------------0---------------------------------|
B|-1-----0-----------1--3-----1-------1-----0----0---------------------------------|
G|-2-----0-----------------2--2----2-------------0-----------0---------------------|
D|-2-----2--------------------2----------2-------2--------2------------------------|
A|-0-----3--------------------0------------------3---------------------------------|
E|-x-----x--------------------x------------------x---------------------------------|


Verse -  repeat chords Am and Cadd9


'I keep it to my

   self in my mind'
              (strum)                          
e|--0---------0-0-0-0-0--0-0-0--
B|----1--0----0-0-0-0-0--0-0-0--
G|------------2-2-2-2-2--0-0-0--
D|------------3-3-3-3-3--0-0-0--
A|------------3-3-3-3-3--2-2-0--
E|------------x----------3-3-0-- (repeat last bit again then)


  strum              
e|--0- 
B|--0-
G|--2-
D|--3-
A|--3-
E|--x-



Chorus:

F5  G5   A5 G5   F5  G5
But it's over to you
    A5               G5     
and I can't find the answers
             F5
Where you're gone

(repeat for second bit of chorus)


Verse 2:


(Repeat chords used in the first verse)

There are a  few fill ins:


   'no one needs to know'  repeat until 'in my room'
e|--0-0-0-0-0---------------------------------------0----------------------------|
B|----------------------------------------------------1-0h1-1p-------------------|
G|-------------------------------------------------------------------------------|
D|-------------------------------------------------------------------------------|
A|-------------------------------------------------------------------------------|
E|-------------------------------------------------------------------------------|

Bridge:

A5 C5  G5               A5
       I won't tear you down
                        C5
       I won't tear you down
       G5          F5     
       Get into the world you wanted
       G5                      A5
       I'm kicking through the walls
                        C5      C/B5              F5   G5   
      And no one can believe in things that never change

Repeat Chorus to end!!!!!!

There you go! A great song by a great band....the tab is short and sweet and hopefully 
you all enjoyed it! Thanks Sheriff.


Текст, аккорды и табулатура для песни "Its Over", исполняет "Goo Goo Dolls".
Используемые в песне аккорды можно найти в разделе Как брать аккорды. Аккорды для шестиструнной гитары. Другие песни можно найти на нашем сайте, воспользовавшись алфавитным указателем вверху страницы.


 
Ошибка в тексте? Выделите ошибку и нажмите Ctrl+Enter