#----------------------------------PLEASE NOTE--------------------------------#
#This file is the author's own work and represents their interpretation of the#
#song. You may only use this file for private study, scholarship, or research.#
#-----------------------------------------------------------------------------#

Girl Right Next to Me
(tabbed by [email protected])
(with help from Johnny O)
Goo Goo Dolls Web Site: The World of Goo
http://soong.heinous.net/~goo/index.html

Intro:
	B5(VII)-B5(VII)-B5(VII)                           >
e  ----14p11-------------------------------------------------------
B ------------14p11-----------14p11--------------------------------
G --------------------13p11----------13p11--------13p11------------
D -----------------------------------------13p11-------------------
A -----------------------------------------------------------------
E -----------------------------------------------------------------

     >                            >
e  ----------------------------------------------------------------
B --14p11------------------------14p11-----------------------------
G --------13p11--------13p11-----------13p11-------13p11-----------
D --------------13p11-------------------------13p11----------------
A -----------------------------------------------------------------
E -----------------------------------------------------------------
 
e ---------------------------------------------------------------
B ---------------------------------------------------------------
G -(13)-13b(14)--(14)----(14)----13fb&r p11------11-13--11-------
D -----------------------------------------13--------------------
A ---------------------------------------------------------------
E ---------------------------------------------------------------

e -17b(18)-(18)-(18)r17p16p14--14---17b(18)p16p14-14---
B -----------------------------------------------------
G -----------------------------------------------------
D -----------------------------------------------------
A -----------------------------------------------------
E -----------------------------------------------------

e -16-17b(18)p16p14--14p11----------------------
B -------------------------14p11----------------
G -------------------------------13--11---------
D ----------------------------------------------
A ----------------------------------------------
E ----------------------------------------------


B5(VII): 7-9-9		F#5(IX): 9-11-11
Eb5(XI): 11-11-13		C#5(IX): 9-11-11
F#5: 2-4-4			F#5/F: 8-11-11
B5: 2-4-4		C#5: 4-6-6		Eb5: 6-8-8

(verse)
You changed my face,
        I think I like it better now.
It doesn't matter anyhow, cuz that's the way it is.
You said hello,
        Well where the hell you been?
I said I feel like I've been off to war, and I may never be the same
 again.

(verse)
I made my bed,
        But now I can't sleep at night.
I'm tossin and turnin you know, you know it ain't right.
I'd love to beg,
        See, but I'm just too proud.
And I don't even know what to say, so I'm thinking out loud.

(chorus)
And when you dream 17,
        I ain't there, so I don't care.
Cuz in all my dreams, I'm 23,
        And she's the girl right next to me.
        See that girl right next to me.

(verse)
I lie in my bed,
        You're running through my head.
Going over and over and over, the things that you said.
I'm caught in the trap,
        I'll run like hell right back to you.
Cuz it's over with you and you know it means drinking alone.

(chorus)
And when you dream 17,
        I ain't there, so I don't care.
Cuz in all my dreams, I'm 23,
        And she's the girl right next to me.
        See that girl right next to me.

(solo)

(chorus 2x)

This file is copyright [email protected], 1997. You are
free to use it for your personal or educational use, but permission must
be granted to post this transcription. Thank you.


Текст, аккорды и табулатура для песни "Girl Right Next To Me", исполняет "Goo Goo Dolls".
Используемые в песне аккорды можно найти в разделе Как брать аккорды. Аккорды для шестиструнной гитары. Другие песни можно найти на нашем сайте, воспользовавшись алфавитным указателем вверху страницы.


Слушать онлайн Girl Right Next To Me


Goo Goo DollsGirl Right Next To Me на Яндекс.Музыке


 
Ошибка в тексте? Выделите ошибку и нажмите Ctrl+Enter