#----------------------------------PLEASE NOTE--------------------------------#
#This file is the author's own work and represents their interpretation of the#
#song. You may only use this file for private study, scholarship, or research.#
#-----------------------------------------------------------------------------#

Bitch by the Goo Goo Dolls w/ Lance Diamond
(originally by the Rolling Stones)
(off the No Alternative Compilation)
(tabbed by [email protected])
Goo Goo Dolls Web Site: The World of Goo
http://soong.heinous.net/~goo/index.html

Intro:
(lead)
e  -------------------------5h7p5-|---------------------------
B  -------------------------------|---------------------------
G  -------------------------------|---------------------------
D  -------------------------------|---------------------------
A  -------------------------------|---------------------------
E  -------------------------------|---------------------------
(rhythm and horns - riff 1)
e  -------------------------------|---------------------------
B  -------------------------------|---------------------------
G  ---------------------7--5------|-----------7-5-------------
D  ---------------------7--5------|-----------7-5-------------
A  ---------------------5--3------|-----------5-3-------------
E  -0-3-5-5-3-5-5-3-5-3-----------|-0-3-5-5-3-----0-5-3-0-5---

(lead)
e  -------------------------5h7p5-|-10---10b11p8----10b11p8---
B  -------------------------------|-------------10---------10-
G  -------------------------------|---------------------------
D  -------------------------------|---------------------------
A  -------------------------------|---------------------------
E  -------------------------------|---------------------------
(rhythm and horns - riff 1)
e  -------------------------------|---------------------------
B  -------------------------------|---------------------------
G  ---------------------7--5------|-----------7-5-------------
D  ---------------------7--5------|-----------7-5-------------
A  ---------------------5--3------|-----------5-3-------------
E  -0-3-5-5-3-5-5-3-5-3-----------|-0-3-5-5-3-----0-5-3-0-5---

(verse - play riff 1)
I'm feeling so tired can't understand it
Just had a fortnights sleep
I'm feeling strong, owh, so distracted
Ain't touched a thing all week

(verse)            * play fill 1 (below)
I'm feeling drunk, yes I am, juiced up 'n' sloppy
Ain't touched a drink all night
I'm feeling hungry, can't see the reason
Just had a horse meat pie

(chorus)
D5
Yeah, when you call my name
G5                A5
I salivate like a Pavlov dog
D5
Yeah, when you lay me out
   B5                            E5
My heart is beating louder than a big bass drum

(play 1st 2 measures of intro)

(verse)
Yeah, you got to mix it child
You got the fix, this must be love
It's a bitch

(verse)
Yeah, you got to mix it child
You got the fix, this must be love
It's a bitch, alright

(rhythm and horns play riff 1)
(lead plays a high e repetetively)

(verse)
Sometimes I'm sexy, move like a stud
Kick with the girls all night
                                   * play fill 2 (below)
Sometimes I'm so shy, got to be worked on
Don't have no bark or bite

(chorus)
Yeah, when you call my name
I salivate like a Pavlov dog
Yeah, when you lay me out
My heart is pumping louder than a big bass drum, alright

(solo)
You know what I want, baby.

(play riff 1 till end)
I said, hey, hey, hey, hey, hey, hey, hey (till end)

A5
Wow Baby

Fill 1:
      *hold bend*
e  -------------------------
B  -------------------------
G  --8b(9)-(9)-(9)----------
D  -------------------------
A  -------------------------
E  -------------------------

Fill 2:                               *hold bend*
e  ---------------------5h7p5-|--10b(11)-(11)-(11)-(11)-----
B  ---------------------------|-------------------------10--
G  ---------------------------|-----------------------------
D  ---------------------------|-----------------------------
A  ---------------------------|-----------------------------
E  ---------------------------|-----------------------------

This file is copyright [email protected], 1997. You are 
free to use it for your personal or educational use, but permission must 
be granted to post this transcription. Thank you. 


Текст, аккорды и табулатура для песни "Bitch", исполняет "Goo Goo Dolls".
Используемые в песне аккорды можно найти в разделе Как брать аккорды. Аккорды для шестиструнной гитары. Другие песни можно найти на нашем сайте, воспользовавшись алфавитным указателем вверху страницы.


 
Ошибка в тексте? Выделите ошибку и нажмите Ctrl+Enter