i HAVE SEEN OTHER WAYS TO DO THIS SONG, BUT i THINK THIS WAY IS A LOT EASIER

GOO GOO DOLLS
BIG MACHINE
TABBED BY JOED

THIS IS JUST THE INTRO

E--------------------------------
B-4h5-5--5-5-5-4-4---4-----------
G-4---4--4-4-4-4-4---4(6x)-------
D-2---2--2-2-2-2-2---6-----------
A--------------------6-----------
E--------------------------------

E--------------------------------
B-4h5-5--5-5-5-4-4---4-----------
G-4---4--4-4-4-4-4---4(6x)-------
D-2---2--2-2-2-2-2---6-----------
A--------------------6-----------
E--------------------------------


Текст, аккорды и табулатура для песни "Big Machine", исполняет "Goo Goo Dolls".
Используемые в песне аккорды можно найти в разделе Как брать аккорды. Аккорды для шестиструнной гитары. Другие песни можно найти на нашем сайте, воспользовавшись алфавитным указателем вверху страницы.


Слушать онлайн Big Machine


Goo Goo DollsBig Machine на Яндекс.Музыке


 
Ошибка в тексте? Выделите ошибку и нажмите Ctrl+Enter