Sorry I couldnt figure out the whole song, but this is the main bluck of it.
You have to have the song playing to figure out the rythme, good luck. kerz

Tuning: D   A   D   G   B#(C)  E

Intro:

-----0-----0------0----0----0-----0-------0-----------
-----0-----0------0----0----0-----0-------0-----------
---9-----7-----12----9-----9-----7---5/4--4----------- x4
---7-----5-----10----7-----7-----5---3----------------
------------------------------------------------------
------------------------------------------------------

Bridge:

-0---0--0--0--0-0-0-0-0-0-0--
-0---0--0--0--0-0-0-0-0-0-0--
-10/-9/-7--9--0-0-0-0-0-0-0--
-7---7--7-----2-2-2-2-3-3-3--
-0---0--0-----2-2-2-2-3-3-3--
--------------2-2-2-2-3-3-3--


-0---0--0--0--0-0-0-0-0-0-0--0-0-0-0-0-0------------
-0---0--0--0--0-0-0-0-0-0-0--0-0-0-0-0-0-----------
-10/-9/-7--9--0-0-0-0-0-0-0--0-0-0-0-0-0------------
-7---7--7-----2-2-2-2-3-3-3--5-5-5-5-5-5-----------
-0---0--0-----2-2-2-2-3-3-3--5-5-5-5-5-5-----------
--------------2-2-2-2-3-3-3--5-5-5-5-5-5-----------

Chorus:
-----0-------0-------0------0----
---0--0-------0-------0------0---
-------0---0---0---0---0---0--0-- x1  
---------------------------------         
-10------7-------5-------3-------         
-10------7-------5-------3-------

-----0-------0-------0------0------0--------0-------0--0
---0--0-------0-------0------0------0--------0------0--0
-------0---0---0---0---0---0--0------0--------0-----0--0
----------------------------------------------------10-10      then go to intro 
-10------7-------5-------3----------------------8---8--8-
-10------7-------5-------3-------7-------9---------------



Daylight burns your sleepy eyes
It's hard to see you dreaming
You hide inside yourself
I wondered what you're thinkin'
And everything you're chasing
It seems to leave you empty

And it won't take long to burn
All eyes on me
Through the nothing that you've learned
All eyes on me
And the things you choose to be
All eyes on me
But your eyes look away
It's so hard to be someone
Strung out from today
And all that you know slips away

You drown in deeper oceans
Inventing new religions
They smile and stab my back
I lie and have to laugh

And it won't take long to burn
All eyes on me
Through the nothing that you've learned
All eyes on me
And the things you choose to be
All eyes on me
But your eyes look away
It's so hard to be someone
Strung out from today
And all that you know slips away

And you hide in your room
And the light burns away
And you move from the truth
It's all so far from you


Текст, аккорды и табулатура для песни "All Eyes On Me", исполняет "Goo Goo Dolls".
Используемые в песне аккорды можно найти в разделе Как брать аккорды. Аккорды для шестиструнной гитары. Другие песни можно найти на нашем сайте, воспользовавшись алфавитным указателем вверху страницы.


Слушать онлайн All Eyes On Me


Goo Goo DollsAll Eyes On Me на Яндекс.Музыке


 
Ошибка в тексте? Выделите ошибку и нажмите Ctrl+Enter