-----------------|-----------------|-----------------|-----------------|
-----------------|-----------------|-----------------|-----------------|
-----0-----0-----|-----0-----0-----|-----0-----0-----|-----------0-----|
---------0---0---|---------0---0---|---------0---0---|-----0---0---0---|
---2---3-------0-|---2---3-------0-|---2---3-------0-|---2---3-------0-|
-3---------------|-3---------------|-3---------------|-3---------------|

--------------------------------------------------------------------|
--------------------------------------------------------------------|
-----------0----------------0----------------0----------0-----0-----|
-----0---0---0--------0---0---0--------0---0---0------------0---0---|
---2---3-------0----2---3-------0----2---3-------0----2---3-------0-|
-3----------------3----------------3----------------3---------------|
They painted up your secrets       With the lies they told you
--------------------------------------------------------------------|
--------------------------------------------------------------------|
-----------0----------------0----------------0----------0-----0-----|
-----0---0---0--------0---0---0--------0---0---0------------0---0---|
---2---3-------0----2---3-------0----2---3-------0----2---3-------0-|
-3----------------3----------------3----------------3---------------|

And the least they ever gave you   Was the most you ever knew

-----------------|-------------------------------------|-----------------|
-----3-----3-----|-------------------------3-----3-----|-----------------|
---2-----0---0---|-----0-----0-----------2-----0---0---|-----0-----0-----|
-0-----2-------2-|---0-----------------0-----2-------2-|---0-------------|
-----------------|-3-------2---2-----------------------|-3-------2---2---|
-----------------|-------3-------3---------------------|-------3-------3-|
And I wonder where these dreams go  When the world gets in your way
-----------------|--------------------------------------------------------|
-----3-----3-----|--------------------------------------------------------|
---2-----0---0---|-----0-----0---------------0-----0----------0-----0-----|
-------2-------2-|---0---------------------------0---0------------0---0---|
-----------------|-3-------2---2-----------2---3-------0----2---3-------0-|
-----------------|-------3-------3-------3----------------3---------------|
What's the point in all this screaming   No one's listening anyway

----------------------------------|
----------------------------------|
-----0-----0----------0-----0-----|
---------0---0------------0---0---|
---2---3-------0----2---3-------0-|
-3----------------3---------------|

--------------------------------------------------------------------|
--------------------------------------------------------------------|
-----0-----0----------0-----0----------0-----0----------0-----0-----|
---------0---0------------0---0------------0---0------------0---0---|
---2---3-------0----2---3-------0----2---3-------0----2---3-------0-|
-3----------------3----------------3----------------3---------------|
Your voice is small and fading     And you hide in here unknown
--------------------------------------------------------------------|
--------------------------------------------------------------------|
-----0-----0----------0-----0----------0-----0----------0-----0-----|
---------0---0------------0---0------------0---0------------0---0---|
---2---3-------0----2---3-------0----2---3-------0----2---3-------0-|
-3----------------3----------------3----------------3---------------|
And your mother loves your father 'Cause she's got nowhere to go





-----------------|-------------------------------------|-----------------|
-----3-----3-----|-------------------------3-----3-----|-----------------|
---2-----0---0---|-----0-----0-----------2-----0---0---|-----0-----0-----|
-0-----2-------2-|---0-----------------0-----2-------2-|---0-------------|
-----------------|-3-------2---2-----------------------|-3-------2---2---|
-----------------|-------3-------3---------------------|-------3-------3-|
And she wonders where these dreams go  'Cause the world got in her way


-----------------|---------------------------------------------------|
-----3-----3-----|---------------------------------------------------|
---2-----0---0---|-----0-----0----------0-----0----------0-----0-----|
-------2-------2-|---0-----------------------0---0------------0---0--|
-----------------|-3-------2---2------2---3-------0----2---3-------0-|
-----------------|-------3-------3--3----------------3---------------|
What's the point ever trying        Nothing changing anyway

----------------------------------|
----------------------------------|
-----0-----0----------0-----0-----|
---------0---0------------0---0---|
---2---3-------0----2---3-------0-|
-3----------------3---------------|

--------------------------------------------------------------------|
--------------------------------------------------------------------|
-----0-----0----------0-----0----------0-----0----------0-----0-----|
---------0---0------------0---0------------0---0------------0---0---|
---2---3-------0----2---3-------0----2---3-------0----2---3-------0-|
-3----------------3----------------3----------------3---------------|
They press their lips against you And you love the lies they say
--------------------------------------------------------------------|
--------------------------------------------------------------------|
-----0-----0----------0-----0----------0-----0----------------0-----|
---------0---0------------0---0------------0---0--------0---0---0---|
---2---3-------0----2---3-------0----2---3-------0----2---3-------0-|
-3----------------3----------------3----------------3---------------|
And I tried so hard to reach you  But your falling anyway

-----------------|-------------------------------------|-----------------|
-----3-----3-----|-------------------------3-----3-----|-----------------|
---2-----0---0---|-----0-----0-----------2-----0---0---|-----0-----0-----|
-0-----2-------2-|---0-----------------0-----2-------2-|---0-------------|
-----------------|-3-------2---2-----------------------|-3-------2---2---|
-----------------|-------3-------3---------------------|-------3-------3-|
And you know I see right through you When the world gets in your way
-----------------|--------------------------------------------------------|
-----3-----3-----|--------------------------------------------------------|
---2-----0---0---|-----0-----0---------------0-----0----------0-----0-----|
-------2-------2-|---0---------------------------0---0------------0---0---|
-----------------|-3-------2---2-----------2---3-------0----2---3-------0-|
-----------------|-------3-------3-------3----------------3---------------|
What's the point in all the screaming    You're not listening anyway


----------------------------------|
----------------------------------|
-----0-----0----------0-----0-----|
---------0---0------------0---0---|
---2---3-------0----2---3-------0-|
-3----------------3---------------|     End on G


Peace & Enjoy  RRRRR      SSSSSS   KK    KK
              RR   RR    SSS       KK   KK
              RR   RR   SSS        KKKKK
              RRRRR     SSSSSSS    KKKKK
              RR  RR        SSS    KK  KKK
              RR   RR  SSSSSSS     KK   KKK


Текст, аккорды и табулатура для песни "Acoustic", исполняет "Goo Goo Dolls".
Используемые в песне аккорды можно найти в разделе Как брать аккорды. Аккорды для шестиструнной гитары. Другие песни можно найти на нашем сайте, воспользовавшись алфавитным указателем вверху страницы.


Слушать онлайн Home


Goo Goo DollsHome на Яндекс.Музыке


 
Ошибка в тексте? Выделите ошибку и нажмите Ctrl+Enter