===================
Get Myself Arrested
===================

Transcribed by Richard Averill.
E-mail me at [email protected] with corrections or comments.

-----
Intro
-----

Wait two bars, then:

1|---------------------------------|-----------------------8-------|
2|-----------------------------|-------------------------------|
3|-----------------------------|-----------------------9-------|
4|-----------------------------|-------------------------------|
5|---------------------------------|-------------------------------|
6|---------------------------------|-------------------------------|
   1   +   2   +   3   +   4   +   1   +   2   +   3   +   4   +

1|-7------5---5-------------------0-----------------------8-------|
2|---------------------------------|-------------------------------|
3|-7------5---5-----------5------|-----------------------9-------|
4|---------------------------------|-------------------------------|
5|---------------------------------|-------------------------------|
6|---------------------------------|-------------------------------|
   1   +   2   +   3   +   4   +   1   +   2   +   3   +   4   +

1|-7------5---5---------------7--4-----------------------8-------|
2|---------------------------------|-------------------------------|
3|-7------5---5-----------5/7-----4-----------------------9-------|
4|---------------------------------|-------------------------------|
5|---------------------------------|-------------------------------|
6|---------------------------------|-------------------------------|
   1   +   2   +   3   +   4   +   1   +   2   +   3   +   4   +

1|-7-----------9-------------------10--------------12-----10------|
2|---------------------------------|-------------------------------|
3|-7-------7/9-----------------9/10|-----------10/12---------------|
4|---------------------------------|-------------------------------|
5|---------------------------------|-------------------------------|
6|---------------------------------|-------------------------------|
   1   +   2   +   3   +   4   +   1   +   2   +   3   +   4   +

1|-8-------------------------------0-------------------------------|
2|---------------------------------|-------------------------------|
3|-9-----------------------9------|-------------------------------|
4|---------------------------------|-------------------------------|
5|---------------------------------|-------------------------------|
6|---------------------------------|-------------------------------|
   1   +   2   +   3   +   4   +   1   +   2   +   3   +   4   +

-------
Verse 1
-------

This part is played on an acoustic guitar. The electric guitar
continues to play the intro riff, with the volume turned down.

------
Chorus
------

  (0:55)    ___   ___   ___                                   ___   ___
           | 3 | | 3 | | 3 |                                 | 3 | | 3 |
1|---------------------------------------|-------2-x---2---2-----2-----2-----|
2|---------------------------------------|-------2-x---2---2-----2-----2-----|
3|-1---1---x---1-1---1-1---1-1---1---1---|-------2-x---2---2-----2-----2-----|
4|-2---2---x---2-2---2-2---2-2---2---2---4---4-------4-------4-----4-----4---|
5|-2---2---x---2-2---2-2---2-2---2---2---4---4-------4-------4-----4-----4---|
6|-0---0---x---0-0---0-0---0-0---0---0---2---2-------2-------2-----2-----2---|
   1   +   2 . . + . . 3 . . +   4   +   1   +   2   +   3   + . . 4 . . +
            ___   ___                               ___   ___       ___
           | 3 | | 3 |                             | 3 | | 3 |     | 3 |
1|-------------------------------------|-------------------------------------|
2|-2---2---x---2-2---2-2---2---2---2---|-------------------------------------|
3|-2---2---x---2-2---2-2---2---2---2---1---1---1---------------4-------------|
4|-2---2---x---2-2---2-2---2---2---2---2---2---2---2--h4-4--h6-----6--p4-----|
5|-0---0---x---0-0---0-0---0---0---0---2---2---2-------------------------7---|
6|-------------------------------------0---0---0-----------------------------|
   1   +   2 . . + . . 3   +   4   +   1   +   2   + . . 3 . . +   4 . . +
            ___   ___   ___                               ___
           | 3 | | 3 | | 3 |                             | 3 |
1|---------------------------------------|---------------------------------|
2|---------------------------------------|---------------------------------|
3|---------x---1-1---1-1---1-1---1---1---|---------------------------------|
4|-2---2---x---2-2---2-2---2-2---2---2---4---4---x---4---4--h6-4---4---4---|
5|-2---2---x---2-2---2-2---2-2---2---2---4---4---x---4-------------4---4---|
6|-0---0---x---0-0---0-0---0-0---0---0---2---2---x---2-------------2---2---|
   1   +   2 . . + . . 3 . . +   4   +   1   +   2   +   3 . . +   4   +
            ___   ___
           | 3 | | 3 |
1|-------------------------------------|-------------------------------|
2|-2---2---x---2-2---2-2---2---2---2---|-------------------------------|
3|-2---2---x---2-2---2-2---2---2---2---1---1---1-----------------------|
4|-2---2---x---2-2---2-2---2---2---2---2---2---2-----------------------|
5|-0---0---x---0-0---0-0---0---0---0---2---2---2-----------------------|
6|-------------------------------------0---0---0-----------------------|
   1   +   2 . . + . . 3   +   4   +   1   +   2   +   3   +   4   +

------
Bridge
------

  (1:18)

1|-0-------------------------------|-------------------------------|
2|-------------------------9b10r---8/9---------5h6-5---------------|
3|-9---b9.5------------------------|-------------------------------|
4|---------------------------------|-------------------------------|
5|---------------------------------|-------------------------------|
6|---------------------------------|-------------------------------|
   1   +   2   +   3   +   4   +   1   +   2   +   3   +   4   +


Текст, аккорды и табулатура для песни "Get Myself Arrested", исполняет "Gomez".
Используемые в песне аккорды можно найти в разделе Как брать аккорды. Аккорды для шестиструнной гитары. Другие песни можно найти на нашем сайте, воспользовавшись алфавитным указателем вверху страницы.


 
Ошибка в тексте? Выделите ошибку и нажмите Ctrl+Enter