Song:  Get Myself Arrested
Band:  Gomez
Album: Bring It On
Tabbed By:  TheBoogieVan (Andy Schacht)

Intro/Verse:  Use a wah or just hammer and pull off a lot on the
              [3h4] and [5h6] parts.

G-----------------------------------------|
D-------------------------------5h6-------|
A-----------3h4---------7-7-5h7-----7-5h7-|
E---5-5-3h5-----5-3h5---------------------|


Chorus:  Throw in a lot of variations here; especially at the end of the
         line.  Again, wah or hammer/pull of on [5h6], [7h8] and [10h11].
-
G|----------------------------------------------------------------------|
D|-----------5h6-----------------7h8---------------------10h11----------|
A|---7-7-5h7-----7-5h7---9-9-7h9-----9-7h9---12-12-10h12-------12-10h12-|
E|----------------------------------------------------------------------|

G|--------------------|
D|-------(Variations)-|  At the end of the line go up with the guitar the
A|---7-7-(Here......)-|  First time and down into the verse the second
E|--------------------|  Time through.

There tis.


Текст, аккорды и табулатура для песни "Get Myself Arrested", исполняет "Gomez".
Используемые в песне аккорды можно найти в разделе Как брать аккорды. Аккорды для шестиструнной гитары. Другие песни можно найти на нашем сайте, воспользовавшись алфавитным указателем вверху страницы.


 
Ошибка в тексте? Выделите ошибку и нажмите Ctrl+Enter