Intro:
Part 1
Guitar 1
E---------------------------------------
B---------------------------------------
G---76-------76---------76-------76-----
D--0--75457-0--7579-11-0--75457-0---7---
A---------------------------------------
D---------------------------------------
Guitar 2
E------------------------
B------------------------
G------------------------
D------------------------
A-----------------9/12---
D------------------------
Part two 
Both Guitars
E------------------------
B------------------------
G------------------------
D---5555555555-77777-7-7-
A---5555555555-77777-7-7-
D---5555555555-77777-7-7-
Part 3
Guitar 1
E-------------------------------------------
B-------------------------------------------
G---76-------76-------76--------76797-11-97-
D--0--75457-0--75797-0---75457-0------------
A-------------------------------------------
D-------------------------------------------
Guitar 2 (Guitar 1 comes in playing same riff after 6X)
E---------------------
B---------------------
G--7-7-7-7------------
D--7-7-7-7--5-5--7-7--X11 (goes into verse then..)
A--5-5-5-5--5-5--7-7--
D-----------5-5--7-7--
Bridge (Both GUitars Play)
E----------------------------------
B----------------------------------
G--7-7-7-7-------------------------
D--7-7-7-7--5555555555--77777-7-7--
A--5-5-5-5--5555555555--77777-7-7--
D-----------5555555555--77777-7-7--

Chorus (Both Guitars Play)
E-------------------------------------
B-------------------------------------
G-------------77-------------------7--
D--5555--7777-77-77-9999-5555-7777-7--
A--5555--7777-55-77-9999-5555-7777-5--
D--5555--7777----77-9999-5555-7777----

Verse 2
Guitar 1         Guitar 2 (p.m)(after 6X of guitar 1)
E------------    E-----|------------------------|
B------------    B-----|------------------------|
G----76------    G-777-|-.-77777777-----------.-|
D--0---75457-X9  D-777-|-.-77777777-5555-7777-.-|X3
A------------    A-555-|---55555555-5555-7777---|
D------------    D-----|------------5555-7777---|

Bridge (both Guitars) . = P.m (p.m is only guitar 2)
E----------------------
B----------------------
G-77777777-------------
D-77777777-55555-7-7---
A-55555555-55555-7-7---
D----------55555-7-7---
  ........

Chorus 2 (both guitars)
E------------------------------------------------
B------------------------------------------------
G------------77-------------------77-99-11111111-
D--5555-7777-77-77-9999-5555-7777-77-99-11111111-
A--5555-7777-55-77-9999-5555-7777-55-77-9-9-9-9--
D--5555-7777----77-9999-5555-7777----------------

E-------------------------------------------
B-------------------------------------------
G------------7777-77--------------77767777--
D--5555-7777-7777-77-99-5555-7777-77767777--
A--5555-7777-5555-55-99-5555-7777-55545555--
D--5555-7777---------99-5555-7777-----------

Interlude (guitar 2 till second line, the both guitars)
E-------------------------------------------------------
B-------------------------------------------------------
G-------------------------------------------------------
D--99999999-77777777-99999999-12-12-12-12-11-11-11-11---
A--99999999-77777777-99999999-12-12-12-12-11-11-11-11---
D--99999999-77777777-99999999-12-12-12-12-11-11-11-11---

E--------------------------
B--------------------------
G--------------------------
D--99999999-77777757-9999--
A--99999999-77777757-9999--
D--99999999-77777757-9999--

E---------------------------------------
B---------------------------------------
G---------------------------------------
D--12-12-12-12-11-11-11-11-11-11-11-11--
A--12-12-12-12-11-11-11-11-11-11-11-11--
D--12-12-12-12-11-11-11-11-11-11-11-11--

Interlude continued (Guitar 2 only)
E--------------------
B--------------------
G--------7-----------
D--5--7--7--9--5--7--
A--5--7--5--9--5--7--
D--5--7-----9--5--7--

Interlude finale (Both Guitars)
E--------------------------------------------
B--------------------------------------------
G--------------------------------------------
D-55555555555555555555-777777777777777-7-7---
A-55555555555555555555-777777777777777-7-7---
D-55555555555555555555-777777777777777-7-7---

Last Chorus:
Play Chorus 2 (both Guitars) then
Guitar 2
E-----
B-----
G--7--
D--7--X25
A--5--
D-----

Guitar 1
E------------------------------------------
B------------------------------------------
G--76-------76-------76-------76-------76--
D-0--75457-0--75797-0--75457-0--75457-0----
A------------------------------------------
D------------------------------------------

Outro (both Guitars)
E---------
B---------
G---------
D---7--5--
A---7--5--
D---7--5--


Текст, аккорды и табулатура для песни "Radio", исполняет "Goldfinger".
Используемые в песне аккорды можно найти в разделе Как брать аккорды. Аккорды для шестиструнной гитары. Другие песни можно найти на нашем сайте, воспользовавшись алфавитным указателем вверху страницы.


Слушать онлайн Summerwine


DJ Ostkurve pres. BootlickerzSummerwine на Яндекс.Музыке


 
Ошибка в тексте? Выделите ошибку и нажмите Ctrl+Enter