------------------------------------------------------------
			     OPEN YOUR EYES - GOLDFINGER
------------------------------------------------------------

By: Andrew M.  This is my first tab.  Awesome song.  enjoy

Tuning: Standard 

Intro/verses: (low volume w/ low distortion)
 (All palm muted)(play twice)
e|---------------------------------7-7-7-------------------|
B|---------------------------------7-7-7-------------------|
G|---------------------------------7-7-7-------------------|
D|---------------------------------------------------------|
A|-------2-2-2-2-2-------5-5-5-5-5-------------------------|
E|-0-0-0-----------3-3-3-----------------------------------|
                                   |played on last time|
Main Rift/Chorus: (Distrotion)
e|---------------------------------------------------------|
B|---------------------------------------------------------|
G|-------4-4-4-4-4-------7-7-7-7-7-------------------------|
D|-2-2-2-4-4-4-4-4-5-5-5-7-7-7-7-7--X2---------------------|
A|-2-2-2-2-2-2-2-2-5-5-5-5-5-5-5-5-------------------------|
E|-0-0-0-----------3-3-3-----------------------------------|

Verse X6

Chorus X4

Verse X6

Chorus X4

Bridge 1:  (the little high pitch solo)
e|---------------------------------------------------------|
B|----------9-----------9----------------------------------|
G|-8-----8-----8-----8------(times 2)----------------------|
D|----9-----------9----------------------------------------|
A|---------------------------------------------------------|
E|---------------------------------------------------------|

Bridge 2: (low volume w/ low distortion)
(Played 8 times progressively becoming power chords after 4th time)
e|---------------------------------------------------------|
B|---------------------------------------------------------|
G|---------------------------------------------------------|
D|---------------------------------------------------------|
A|-------2-2-2-2-2-------5-5-5-5-5-------------------------|
E|-0-0-0-----------3-3-3-----------------------------------|

Chorus X6

End With:
e|---------------------------------------------------------|
B|----------9-----------9----------------------------------|
G|-8-----8-----8-----8-------------------------------------|
D|----9-----------9--------2-2--2-2------------------------|
A|-------------------------2-2--2-2------------------------|
E|-------------------------0-0--0-0------------------------|


Текст, аккорды и табулатура для песни "Open Your Eyes", исполняет "Goldfinger".
Используемые в песне аккорды можно найти в разделе Как брать аккорды. Аккорды для шестиструнной гитары. Другие песни можно найти на нашем сайте, воспользовавшись алфавитным указателем вверху страницы.


Слушать онлайн Open Your Eyes


GoldfingerOpen Your Eyes на Яндекс.Музыке


 
Ошибка в тексте? Выделите ошибку и нажмите Ctrl+Enter