Song: Is She Really Going Out With Him
Band: Goldfinger
Album: Darrin's Coconut Ass
tabbed by: Cameron Gaut

Please, feel free to send corrections to:
[email protected]


Yes folks, this is a cover of the original by Joe Jackson
But, there is some differences between the goldfinger
version and the original, it's in a different key
Go figure.

Chorus A may be simpler than the actual song, because
it's drowned out by the guitar.


~ = let note ring

Verse A
G: ----------------------------------------------
D: ----------------------------------------------
A: ----3---3-----0-1---1-------0-3---------------
E: ----------3-----------1-1-1-------------------


Verse B
G: ----------------------------------------------
D: ----------------------3-3-3-------------------
A: ----3---3-----0-1---1-------0-3---------------
E: ----------3-----------------------------------

Verse C
G: ----------------------------------------------
D: ----------------------------------------------
A: ----3---3-----0-1-1-1-1-----------------------
E: ----------3-------------1-1-1-1---------------


Chorus A
G: ----------------------------------------------
D: ----3---3-3---3-------------------------------
A: ----------------3---3-3-----------------------
E: ------------------------3--1---1-1---1-0---0--

G: ----------------------------------------------
D: ----------------------------------------------
A: ----------------------------------------------
E: 5--3-1---1-1---130---0-5-3-1~---3~------------


Chorus B1
G: ----------------------------------------------
D: ----------------------------------------------
A: ----------------------------------------------
E: ----0--00--01--11--13--33--35--55-3-0---------

Chorus B2
G: ------------------------------------------------------
D: ------------------------------------------------------
A: --------2-------2--------3-------3--------5-------5---
E: ----0--0--0-0--0--0--1--1--1-1--1--1--3--3--3-3--3--3-

Chorus B Ending
G: ----------------------------------------------
D: ----------------------------------------------
A: ----7--5--3-5-3-5-3---------------------------
E: ----------------------------------------------

Last Verse (A)
G: ----------------------------------------------
D: ----------------------------------------------
A: ----3---3-----0-1-1-1-------0--3--------------
E: ----------1-----------1-1-1-------------------

Last Verse (B)
G: ----------------------------------------------
D: ----------------------------------------------
A: ----3---3-----0-1-1-1-------0-------------3---
E: ----------1-----------1-1-1-------------------Song Structure:

Verse A x 5
Verse B x 1
Verse A x 4

Verse C
Chorus A

Verse A
Verse B
Verse A x 3
Verse B
Verse A x 3

Verse C
Chorus A

Verse A x 1

Verse C
Chorus B1 x 3
Chorus B2 x 1
Chorus B Ending

Verse A
Verse B

Chorus A

Verse A
Last Verse (A) x 2
Last Verse (B)


Текст, аккорды и табулатура для песни "Is She Really Going Out With Him", исполняет "Goldfinger".
Используемые в песне аккорды можно найти в разделе Как брать аккорды. Аккорды для шестиструнной гитары. Другие песни можно найти на нашем сайте, воспользовавшись алфавитным указателем вверху страницы.


 
Ошибка в тексте? Выделите ошибку и нажмите Ctrl+Enter