SONG: Time Bomb
          	     BAND: Godsmack
          	    ALBUM: Godsmack
           TRANSCRIBED BY: Michael Johnson  ([email protected])
                     Date: 03/21/01
           
          
          	TUNING: Drop D (D-A-D-G-B-E)
          
          
               Intro:
          
              ------------------------------------------
              ------------------------------------------
              ------------------------------------------
              ---0-0-0-0-3-0-0-0-0-3-0-0-5-0-6-0--------
              ------------------------------------------
              ------------------------------------------
          
              Verse:
          
              ---------------------------------------------
              ---------------------------------------------
              -5/7--7--7-7-7-7--7-8-8----5/7--7--7-7-7-7--
              -5/7--7--7-7-7-7--7-8-8----5/7--7--7-7-7-7--
              -3/5--5--5-5-5-5--5-6-6----3/5--5--5-5-5-5--
              ---------------------------------------------
          
          
              --------------------------------------------------------------------------
              --------------------------------------------------------------------------
              ---5/7--7--7-7-7-7--7/10--10---5/7--7--7-7-7--7-----------3---------3---
              ---5/7--7--7-7-7-7--7/10--10---5/7--7--7-7-7--7-----0--0--1----0----1---
              ---3/5--5--5-5-5-5--5/-8---8---3/5--5--5-5-5--5-------------------------
              --------------------------------------------------------------------------
          
              Pre-Chorus:
          
              --------------------------
              --------------------------
              --------------------------
              -5/7-7-7-x-x-5/7-7-8-5--5-
              -5/7-7-7-x-x-5/7-7-8-5--5-
              -5/7-7-7-x-x-5/7-7-8-5--5-
          
          
               Chorus:
          
              ----------------------------------------------------------------------
              ----------------------------------------------------------------------
              ----------------------------------------------------------------------
              ---0-0-0-0-3-0-0-0-0-3-0-0-5-0-6-0--0-0-0-0-3-0-0-0-0-0-0-0-0-0-0-0---
              ----------------------------------------------------------------------
              ----------------------------------------------------------------------
          
              Bridge:
          
              ------------------------------------------------------------------
              ------------------------------------------------------------------
              -5/7--7-7--5/7--7-7--5/7--7--10-10--5-5-5----3---3----2----5-----
              -5/7--7-7--5/7--7-7--5/7--7--10-10--5-5-5----3---3----2----5-----
              -3/5--5-5--3/5--5-5--3/5--5---8--8--3-3-3----1---1----0----3-----
              -----------------------------------------------------3------------
                                                            ------------------Last Time only
              Outro:
          
              ---------------------------------------------------------------------------
              ---------------------------------------------------------------------------
              -5/7--7-5/7--7-5/7--7-5/7--7-5/7--7-5/7--7-5/7--7-5/7--7-5/7--7-5/7--7-5-5-
              -5/7--7-5/7--7-5/7--7-5/7--7-5/7--7-5/7--7-5/7--7-5/7--7-5/7--7-5/7--7-5-5-
              -3/5--5-3/5--5-3/5--5-3/5--5-3/5--5-3/5--5-3/5--5-3/5--5-3/5--5-3/5--5-3-3-
              ---------------------------------------------------------------------------
          
          
          
              ---------------
              ---------------
              ---5--7--7-----
              ---5--7--7-----
              ---3--5--5-----
              ---------------
               Play this riff however many times needed


Текст, аккорды и табулатура для песни "Time Bomb", исполняет "Godsmack".
Используемые в песне аккорды можно найти в разделе Как брать аккорды. Аккорды для шестиструнной гитары. Другие песни можно найти на нашем сайте, воспользовавшись алфавитным указателем вверху страницы.


Слушать онлайн Time Bomb


GodsmackTime Bomb на Яндекс.Музыке


 
Ошибка в тексте? Выделите ошибку и нажмите Ctrl+Enter