Godsmack - The Spiral
Tabbed By: GSR200BK
EMail: [email protected]
Album: Awake
Tuning: C-G-C-F

Section A
Repeat 6 times
F:-----------------------------|
C:-----------------------------|
G:-----8---------6---------0---|
C:--0-----0--0-------0--0--7---|

F:-----------------------------|
C:-----------------------------|
G:-----8-----------6--5--0-----|
C:--0-----0--0-----------7-----|

F:-----------------------------|
C:-----------------------------|
G:-----8---------6----------0--|
C:--0-----0--0-------0--0---7--|

F:-----------------------------|
C:-----------------------------|
G:-----8-----------6--5--------|
C:--0-----0--0-----------------|


Section B
F:---------------------------------------|
C:---------------------------------------|
G:---------------------------------------|
C:--5----5----5----1----1----1--1--1--3--|

F:-----------------------------|
C:-----------------------------|
G:-----8-----------6--5--0-----|
C:--0-----0--0-----------7-----|

F:-----------------------------|
C:-----------------------------|
G:-----8-----------6--5--0-----|
C:--0-----0--0-----------7-----|

F:------------------------------------|
C:-----------------1----1-------------|
G:------------------------------------|
C:--5----5----5--------------1--0--1--|Part C     Repeat it 3 times
F:-----------------------------|
C:-----------------------------|
G:-----8-----------6--5--0-----|
C:--0-----0--0-----------7-----|


Part D
F:-----------------------------|
C:-----------------------------|
G:-----8-----------6--5--------|
C:--0-----0--0-----------------|

F:---------------------|
C:---------------------|
G:--5~-------------5~--|
C:---------------------|


Play Section  A 5 times
Play Section  B
Play Part  C  3 times
Play Part  D
Play Part  C  3 times
Play Part  D
Play Section  A 4 times
Play Section  b
Play Part  C 3 times
Play Part  D
Play Part  C 3 times
Play Part  D 


F:------|
C:------|
G:------|
C:--0~--|


Play Part D


Part E      repeat it 3 times
F:-----------------------------|
C:-----------------------------|
G:-----8-----------6--5--------|
C:--0-----0--0-----------7-----|


Play Part  D
Play Part  E 3 times
Play Play Part  D
Play Part  E 3 times
Play Part  D
Play Part  E 3 times
Play Part  D


Текст, аккорды и табулатура для песни "The Spiral", исполняет "Godsmack".
Используемые в песне аккорды можно найти в разделе Как брать аккорды. Аккорды для шестиструнной гитары. Другие песни можно найти на нашем сайте, воспользовавшись алфавитным указателем вверху страницы.


Слушать онлайн Spiral


GodsmackSpiral на Яндекс.Музыке


 
Ошибка в тексте? Выделите ошибку и нажмите Ctrl+Enter