Godsmack - Straight Out Of Line
Tabbed by: Rich Funk
4/27/03
Drop C tuning:
C-G-C-F-A-D

Gain: 8
EQ: Bass/Mid/Treble: 8/5/6


Intro

Gtr. 1 (dist.)
D|-----------------------------------------------------|
A|-----------------------------------------------------|
F|-----------------------------------------------------|
C|-----------------------------------------------------|
G|--(7)~~~~~(7)---(10)~~~~~-(10)9--(9)~~~12~~~(12)---|
C|-----------------------------------------------------|

Gtr. 1
D|---------------------------------------------------|
A|---------------------------------------------------|
F|---------------------------------------------------|
C|---------------------------------------------------|
G|---7-----------------------------------------------|
C|---------------------------------------------------|

Gtr. 2
D|---------------------------------------------------|
A|---------------------------------------------------|
F|---------------------------------------------------|
C|---------------------------------------------------|
G|---------------------------------------------------|
C|---0-2-2-2-0-0-0-2-2-2-0-0-0-2-2-3-----------------|
  PM.................................
 
D|---------------------------------------------------|
A|---------------------------------------------------|
F|---------------------------------------------------|
C|---------------------------------------------------|
G|---------------------------------------------------|
C|---0-2-2-2-0-0-0-2-2-2-0-0-0-2-2-3-----------------|
  PM.................................

Gtr. 1
D|---------------------------------------------------|
A|---------------------------------------------------|
F|---------------------------------------------------|
C|---------------------------------------------------|
G|----------10--------------------------9------------|
C|---------------------------------------------------|

Gtr. 2
D|-------------------------------------------------------------|
A|-------------------------------------------------------------|
F|-------------------------------------------------------------|
C|-------------------------------------------------------------|
G|-------------------------------------------------------------|
C|---0-2-2-2-0-0-0-2-2-2-0-0-0-2-2-3----0-2-2-2-0-0-0-2-2-2----|
   PM...............................

Gtr. 2
D|-------------------------------------------------------------------|
A|-------------------------------------------------------------------|
F|-------------------------------------------------------------------|
C|-------------------------------------------------------------------|
G|--0---2-2-2-0-0---2-2-2-0-0---3-3--0---2-2-2-0-0---2-2-2-0-0-2-2-3-|
C|--0---2-2-2-0-0---2-2-2-0-0---3-3--0---2-2-2-0-0---2-2-2-0-0-2-2-3-|

Gtr. 2
D|----------------------------------------|
A|----------------------------------------|
F|----------------------------------------|
C|----------------------------------------|
G|--0---2-2-2-0-0---2-2-2-0-0---3----0----|
C|--0---2-2-2-0-0---2-2-2-0-0---3----0----|

Gtr. 2
D|-------------------------------------------------------------------|
A|-------------------------------------------------------------------|
F|-------------------------------------------------------------------|
C|-------------------------------------------------------------------|
G|--0---2-2-2-0-0---2-2-2-0-0---3-3--0---2-2-2-0-0---2-2-2-0-0-2-2-3-|
C|--0---2-2-2-0-0---2-2-2-0-0---3-3--0---2-2-2-0-0---2-2-2-0-0-2-2-3-|

Gtr. 2
D|----------------------------------------------------------------|
A|----------------------------------------------------------------|
F|----------------------------------------------------------------|
C|----------------------------------------------------------------|
G|--0---2-2-2-0-0---2-2-2-0-0-0-3----0---2-2-2-0-0-0-2-2-2-0-0----|
C|--0---2-2-2-0-0---2-2-2-0-0-0-3----0---2-2-2-0-0-0-2-2-2-0-0----|
                                  PM...........................
Gtr. 2
D|----------------------------------------|
A|---5--x-5--x-5---x-5--x-5--x-5----------|
F|----------------------------------------|
C|----------------------------------------|
G|----------------------------------------|
C|----------------------------------------|  x2

D|----------------------------------------|
A|---5-----x-5-----x-5-----x-5------------|
F|----------------------------------------|
C|----------------------------------------|
G|----------------------------------------|
C|----------------------------------------|  x2

D|----------------------------------------|
A|---5--x-5--x-5---x-5--x-5----5-----5----|
F|----------------------------------------|
C|----------------------------------------|
G|----------------------------------------|
C|----------------------------------------|

Gtr. 2
D|------------------------------------------------------------------|
A|------------------------------------------------------------------|
F|------------------------------------------------------------------|
C|--2---2---2-2----2---2-2-2-2---5---5---5-5----5---5-5-5-5-5-------|
G|--2---2---2-2----2---2-2-2-2---5---5---5-5----5---5-5-5-5-5-------|
C|--2---2---2-2----2---2-2-2-2---5---5---5-5----5---5-5-5-5-5-------|

D|------------------------------------------------------------------|
A|--3---3---3-3----3---3-3-3-3--------------------------------------|
F|--2---2---2-2----2---2-2-2-2--------------------------------------|
C|--0---0---0-0----0---0-0-0-0---3---3---3-3----2-2-2-2---0---------|
G|--0---0---0-0----0---0-0-0-0---3---3---3-3----2-2-2-2---0---------|
C|--0---0---0-0----0---0-0-0-0---3---3---3-3----2-2-2-2---0---------|

Gtr. 2
D|------------------------------------------------------------------|
A|------------------------------------------------------------------|
F|------------------------------------------------------------------|
C|--2---2---2-2----2---2-2-2-2---5---5---5-5----5---5-5-5-5-5-------|
G|--2---2---2-2----2---2-2-2-2---5---5---5-5----5---5-5-5-5-5-------|
C|--2---2---2-2----2---2-2-2-2---5---5---5-5----5---5-5-5-5-5-------|

D|------------------------------------------|-||--------------|
A|--3---3---3-3----3---3-3-3-3------------.-|-||--------------|
F|--2---2---2-2----2---2-2-2-2--------------|-||--------------|
C|--0---0---0-0----0---0-0-0-0---5--------.-|-||--5-----------|
G|--0---0---0-0----0---0-0-0-0---3----------|-||--3-----------|
C|--0---0---0-0----0---0-0-0-0---3----------|-||--3---3----3--| x2
                                                    PM......


Solo:
D|----0-----0-----0-----0---------0---------------------|
A|-----------------------------------------3-0----------|
F|-3-----3-----3-----3------3/4-------4--------0--------|
C|------------------------------------------------------|
G|------------------------------------------------------|
C|------------------------------------------------------|

D|-0---0---0-0----0--0-0-0-0-0----0---0---0-0----0--0-0-0-0-0-------|
A|-5---5---5-5----5--5-5-5-5-5----8---8---8-8----8--8-8-8-8-8-------|
F|------------------------------------------------------------------|
C|------------------------------------------------------------------|
G|------------------------------------------------------------------|
C|------------------------------------------------------------------|

D|--0----0----0--0-----0---0--0--0--0--0----|
A|-11---11---11-11----11--11-11-11-11-11----|
F|------------------------------------------|
C|------------------------------------------|
G|------------------------------------------|
C|------------------------------------------|

D|--------12--------------------------------------------------------|
A|--15^-----15-12-15-12--12-----------------------------------------|
F|-FULL----------------15--15-14-15-14-12--12-14-12~~~~~~~~~~~------|
C|---------------------------------------14-------------------------|
G|------------------------------------------------------------------|
C|------------------------------------------------------------------|

D|--15^-------15^----12----------------0----------15-------------0--|
A|-FULL------1 1/2-----15--12-15-12---------15-17-----17^~~~~~~~----|
F|---------------------------------15-----16------------------------|
C|------------------------------------------------------------------|
G|------------------------------------------------------------------|
C|------------------------------------------------------------------|

D|----15-----17----15----17-------15-----17-----15-----15----15---22^|
A|/19---19-----19----19----19--19----19----/17----17-----17----17----|
F|-------------------------------------------------------------------|
C|-------------------------------------------------------------------|
G|-------------------------------------------------------------------|
C|-------------------------------------------------------------------|

Well you should be able to figure it out from there its kinda easy yet really cool. Enjoy!


Текст, аккорды и табулатура для песни "Straight Out Of Line", исполняет "Godsmack".
Используемые в песне аккорды можно найти в разделе Как брать аккорды. Аккорды для шестиструнной гитары. Другие песни можно найти на нашем сайте, воспользовавшись алфавитным указателем вверху страницы.


Слушать онлайн Straight Out Of Line


GodsmackStraight Out Of Line на Яндекс.Музыке


 
Ошибка в тексте? Выделите ошибку и нажмите Ctrl+Enter