godsmack:serenity
this is what I heard on radio, so there might be longer parts
key:dadgbe(dropped d)
(12 stg)

intro/riff 1

|----------------------------------|
|----------------------------------|
|----------------------------------|
|----0----0-0-----0------0------0--|
|----------------------------------|
|--0---0--------3---3--6---6--3----|  intro end on 6-|
                           ^-------------------------|
chorus
                      1,2,3                              4th time  
|--------------------|-----------------|                |----------------------|
|------8----------11-|------9-------6--|                |------13-------9------|
|--------7-----------|-----------------|                |----------------------|
|----5----5----------|-----------------|                |----------------------|
|---5------5----8----|---6-------------|                |---10-----------------|
|--5-----------8-----|--6-------3------| repeat 4x then |-10---------6---------|

riff 1

chorus

riff 1

break
upstroke chord
|--0----0-------------0----------------------------------|
|--3--3---3-------3-----3--------------------------------|
|--2--------2-------2-----2---------7---------6---7------|
|--0------------0--------------6--6---8--6--6---6---8-6--|
|--0---------------------------6-------------------------|
|--0---------------------------6-------------------------| 
repeat                         ^------2nd time hold chord on 6th fret

riff 1
repeat till end 
last chord
upstroke
|--0
|--3
|--2
|--0
|--0
|--0
                                                      enjoy


Текст, аккорды и табулатура для песни "Serenity", исполняет "Godsmack".
Используемые в песне аккорды можно найти в разделе Как брать аккорды. Аккорды для шестиструнной гитары. Другие песни можно найти на нашем сайте, воспользовавшись алфавитным указателем вверху страницы.


Слушать онлайн Serenity


GodsmackSerenity на Яндекс.Музыке


 
Ошибка в тексте? Выделите ошибку и нажмите Ctrl+Enter