-------------------------------------------------------------------------------
			     RE-ALIGN - Godsmack
-------------------------------------------------------------------------------

Tabbed by: Shoebird
Email: [email protected]
Album: Faceless

Tuning: Drop C (low to high C G C F A D)

| (P.M.) palm mute
|   /    slide up  
|       slide down

I didn't include the solo simply because I'm not good enough yet.
The rest of the song is all there, though.

Intro: 2x
D|---------------------------------|
A|---------------------------------|
F|---------------------------------|
C|--0-0-0-0---3-3/8-8-8-8-8-8------|
G|--0-0-0-0---3-3/8-8-8-8-8-8------|
C|--0-0-0-0---3-3/8-8-8-8-8-8------|

D|---------------------------------|
A|---------------------------------|
F|---------------------------------|
C|--0-0-0-0---8-8--3--1------------|
G|--0-0-0-0---8-8--3--1------------|
C|--0-0-0-0---8-8--3--1------------|


Verse: 4x
D|--------------------------------|
A|--------------------------------|
F|--------------------------------|
C|--0-0------0-3-3/8-8-8-8-8-8----|
G|--0-0------0-3-3/8-8-8-8-8-8----|
C|--0-0------0-3-3/8-8-8-8-8-8----|
       (P.M.)


Chorus: 1x
D|------------------------------------------------------|
A|------------------------------------------------------|
F|------------------------------------------------------|
C|--12-12-12-12--10-10-10-10--8-8-8-8--10-10-10-10/15--|
G|--12-12-12-12--10-10-10-10--8-8-8-8--10-10-10-10/15--|
C|--12-12-12-12--10-10-10-10--8-8-8-8--10-10-10-10/15--|

D|------------------------------------------------------|
A|------------------------------------------------------|
F|------------------------------------------------------|
C|--12-12-12-12--10-10-10-10--8-8-8-8--7----------------|
G|--12-12-12-12--10-10-10-10--8-8-8-8--7----------------|
C|--12-12-12-12--10-10-10-10--8-8-8-8--7----------------|

Intro once:
D|---------------------------------|
A|---------------------------------|
F|---------------------------------|
C|--0-0-0-0---3-3/8-8-8-8-8-8------|
G|--0-0-0-0---3-3/8-8-8-8-8-8------|
C|--0-0-0-0---3-3/8-8-8-8-8-8------|

D|---------------------------------|
A|---------------------------------|
F|---------------------------------|
C|--0-0-0-0---8-8--3--1------------|
G|--0-0-0-0---8-8--3--1------------|
C|--0-0-0-0---8-8--3--1------------|

Verse: 4x
D|---------------------------------|
A|---------------------------------|
F|---------------------------------|
C|--0-0------0-3-3/8-8-8-8-8-8-----|
G|--0-0------0-3-3/8-8-8-8-8-8-----|
C|--0-0------0-3-3/8-8-8-8-8-8-----|
       (P.M.)

Chorus:
D|------------------------------------------------------|
A|------------------------------------------------------|
F|------------------------------------------------------|
C|--12-12-12-12--10-10-10-10--8-8-8-8--10-10-10-10/15--|
G|--12-12-12-12--10-10-10-10--8-8-8-8--10-10-10-10/15--|
C|--12-12-12-12--10-10-10-10--8-8-8-8--10-10-10-10/15--|

D|-------------------------------------------------------|
A|-------------------------------------------------------|
F|-------------------------------------------------------|
C|--12-12-12-12--10-10-10-10--8-8-8-8--10----------------|
G|--12-12-12-12--10-10-10-10--8-8-8-8--10----------------|
C|--12-12-12-12--10-10-10-10--8-8-8-8--10----------------|

D|------------------------------------------------------|
A|------------------------------------------------------|
F|------------------------------------------------------|
C|--12-12-12-12--10-10-10-10--8-8-8-8--10-10-10-10/15--|
G|--12-12-12-12--10-10-10-10--8-8-8-8--10-10-10-10/15--|
C|--12-12-12-12--10-10-10-10--8-8-8-8--10-10-10-10/15--|

D|-------------------------------------------------------|
A|-------------------------------------------------------|
F|-------------------------------------------------------|
C|--12-12-12-12--10-10-10-10--8-8-8-8--10----------------|
G|--12-12-12-12--10-10-10-10--8-8-8-8--10----------------|
C|--12-12-12-12--10-10-10-10--8-8-8-8--10----------------|

Pre-solo fill: 3x
D|-----------------------------------------------------|
A|-----------------------------------------------------|
F|-----------------------------------------------------|
C|-0-0--3-3-3--2--1--0-0-------------------------------|
G|-0-0--3-3-3--2--1--0-0-------------------------------|
C|-0-0--3-3-3--2--1--0-0-------------------------------|

This is played once, then the solo is played with the chorus in the background for rhythm.
D|-------------------------------------------------------|
A|-------------------------------------------------------|
F|--12-14-12----10-14-10----12-14-12---------------------|
C|-------------------------------------------------------|
G|-------------------------------------------------------|
C|-------------------------------------------------------|


After the solo the intro is played once, then the chorus again:
D|---------------------------------|
A|---------------------------------|
F|---------------------------------|
C|--0-0-0-0---3-3/8-8-8-8-8-8------|
G|--0-0-0-0---3-3/8-8-8-8-8-8------|
C|--0-0-0-0---3-3/8-8-8-8-8-8------|

D|---------------------------------|
A|---------------------------------|
F|---------------------------------|
C|--0-0-0-0---8-8--3--1------------|
G|--0-0-0-0---8-8--3--1------------|
C|--0-0-0-0---8-8--3--1------------|

Chorus:
D|------------------------------------------------------|
A|------------------------------------------------------|
F|------------------------------------------------------|
C|--12-12-12-12--10-10-10-10--8-8-8-8--10-10-10-10/15--|
G|--12-12-12-12--10-10-10-10--8-8-8-8--10-10-10-10/15--|
C|--12-12-12-12--10-10-10-10--8-8-8-8--10-10-10-10/15--|

D|------------------------------------------------------|
A|------------------------------------------------------|
F|------------------------------------------------------|
C|--12-12-12-12--10-10-10-10--8-8-8-8--10---------------|
G|--12-12-12-12--10-10-10-10--8-8-8-8--10---------------|
C|--12-12-12-12--10-10-10-10--8-8-8-8--10---------------|

D|------------------------------------------------------|
A|------------------------------------------------------|
F|------------------------------------------------------|
C|--12-12-12-12--10-10-10-10--8-8-8-8--10-10-10-10/15--|
G|--12-12-12-12--10-10-10-10--8-8-8-8--10-10-10-10/15--|
C|--12-12-12-12--10-10-10-10--8-8-8-8--10-10-10-10/15--|

D|------------------------------------------------------|
A|------------------------------------------------------|
F|------------------------------------------------------|
C|--12-12-12-12--10-10-10-10--8-8-8-8--10---------------|
G|--12-12-12-12--10-10-10-10--8-8-8-8--10---------------|
C|--12-12-12-12--10-10-10-10--8-8-8-8--10---------------|

D|-----------------------------------------------------|
A|-----------------------------------------------------|
F|-----------------------------------------------------|
C|-0-0--3-3-3--2--1--0-0-------------------------------|
G|-0-0--3-3-3--2--1--0-0-------------------------------|
C|-0-0--3-3-3--2--1--0-0-------------------------------|

D|-----------------------------------------------------|
A|-----------------------------------------------------|
F|-----------------------------------------------------|
C|-0-0--3-3-3--2--1--0-0-------------------------------|
G|-0-0--3-3-3--2--1--0-0-------------------------------|
C|-0-0--3-3-3--2--1--0-0-------------------------------|

D|-----------------------------------------------------|
A|-----------------------------------------------------|
F|-----------------------------------------------------|
C|-0-0--3-3-3--2--1--0-0-------------------------------|
G|-0-0--3-3-3--2--1--0-0-------------------------------|
C|-0-0--3-3-3--2--1--0-0-------------------------------|

Then this is played a few times until the song ends.
D|-------------------------------------------------------|
A|-------------------------------------------------------|
F|--12-14-12----10-14-10----12-14-12---------------------|
C|-------------------------------------------------------|
G|-------------------------------------------------------|
C|-------------------------------------------------------|

That's all. Have fun and enjoy!


Текст, аккорды и табулатура для песни "Re-align", исполняет "Godsmack".
Используемые в песне аккорды можно найти в разделе Как брать аккорды. Аккорды для шестиструнной гитары. Другие песни можно найти на нашем сайте, воспользовавшись алфавитным указателем вверху страницы.


Слушать онлайн Re-Align


GodsmackRe-Align на Яндекс.Музыке


 
Ошибка в тексте? Выделите ошибку и нажмите Ctrl+Enter