Immune-Godsmack
Tabbed by Drew A.
Drop D tuning
ok guys, here is the tab for Immune..i know its not EXACT but it kinda gives you a
sketchy idea of what Tony is playin, and i dont think its all right but hey, what do
ya get for free these days?

h=hammer on
/=slide up
~=vibrato
x=muted string


On the verse, I didn't tab it out exactly I don't think, so just do 
different stuff with a wah that sounds smooth and uses d,e, and f 
for the most part
 intro(D5)          verse(patience...)          (ex. of adlib on verse)
e--------------]--------------------------]-10------------------------
b--------------]--------------------------]--x------------------------
g-7~--5  9 7~--]- 7 xx 5h7 x 7 x 5h7 7 7~--]-7--xx 5h7 7 7 5h7 8 7 5h7
d--------------]--------------------------]---------------------------
a--------------]--------------------------]---------------------------
D--------------]--------------------------]---------------------------
w/wah

chorus(yeah, face it...)      play intro over this
e---------------------------]-------------------------------------
b---------------------------]-------------------------------------
g---------------------------]-------------------------------------
d---------------------------]-------------------------------------
a-0---0-0-2--0-2--0-2/3-3-3-]-0-----------------------------------
D-0---0-0-2--0-2--0-2/3 3-3-]-0-----------------------------------

On this section, play short and choppy chords.  Play the chord, then 
put your right palm on the strings very quickly to muffle it.  Mess 
with it, and listen to the cd to get the rhythm and all.
  interlude 1          1       2      3        4
e---------------------]------]-------]-------]--------]-----------
b---------------------]------]-------]-------]--------]-----------
g---------------------]------]-------]-------]--------]-----------
d---------------------]------]-------]-------]--------]-----------
a-0--0-0---0-0--0-0--0]-0h2-2]-0h3-3-]-0h2-2-]-oh2-2/3]-----------
D-0--0-0---0-0--0-0--0]-0h2-2]-0h3-3-]-0h2-2-]-0h2-2/3]-----------
The numbers above the segments are the endings.  Play the first riff,
but on the first time, end with 1, second time, end with 2, etc.

interlude 2
e-----------------------------------------------------------------
b-----------------------------------------------------------------
g-7----9-10---12-9---5-5/7----7-7-----9-10-10-----12-9-----5-5/7--
d-x----x--x----x-x---x-x------x-x-----x-x---x------x-x-----x-x----
a-5----7--8---10-7---3-3/5----5-5-----7-8---8-----10-7-----3-3/5--
D---------------------------------0-0---------0-0------0-0-----0--


For the solos at the end, just make up stuff with a wah using these 
scales

e-13-10---------------8-5----------20-17--------------------------
b-------13-10-------------8-5------------20-17--------------------
g-------------12-10-----------7-5--------------19-17--------------
d-----------------------------------------------------------------
a-----------------------------------------------------------------
D-----------------------------------------------------------------

setup as follows:
-intro                                
verse                                 
chorus                                   
verse                                                                 chorus(X2)                           
interlude 1
interlude 2  
verse
chorus(x2)
interlude 1(many times)

ok they ye go


Текст, аккорды и табулатура для песни "Immune", исполняет "Godsmack".
Используемые в песне аккорды можно найти в разделе Как брать аккорды. Аккорды для шестиструнной гитары. Другие песни можно найти на нашем сайте, воспользовавшись алфавитным указателем вверху страницы.


Слушать онлайн Immune


GodsmackImmune на Яндекс.Музыке


 
Ошибка в тексте? Выделите ошибку и нажмите Ctrl+Enter