Title: I Stand Alone
Artist: Godsmack
Album: Faceless / Scorpion King soundtrack
Instrument: 6 String Guitar
Tabbed by: Gibson666 ([email protected])

Tuning: 1 Step Down ( C G C F A D)
Heavy Distortion (entire song) and wha (bridge only)

Intro
D|-------------------------------------||8X
A|-------------------------------------||
F|-------------------------------------||
C|-------------------------------------||
G|-------------------------------------||
C|0-0-0-19-19--0-0-0-20-20--0-0-20-20--||

Verse
D|---------------------------------||4X
A|---------------------------------||
F|---------------------------------||
C|-0---0-00--0--00---6---0--00--0-3||
G|-0---0-00--0--00---6---0--00--0-3||
C|-0---0-00--0--00---6---0--00--0-3||
   *   * **  *  **       *  **  * *

Verse cont.
D|-----------------||1X
A|-----------------||
F|-----------------||
C|-0--0--0-000--5--||
G|-0--0--0-000--5--||
C|-0--0--0-000--5--||
   *  *  * ***  *

Pre Chorus
D|----------------------------||1X
A|----------------------------||
F|----------------------------||
C|3------5---------6----------||
G|3------5---------6----------||
C|3------5---------6----------||

Chorus
D|-------------------------------------||2X
A|-------------------------------------||
F|-------------------------------------||
C|-------------------------------------||
G|-------------------------------------||
C|0-0-0-19-19--0-0-0-20-20--0-0-20-20--||

 Verse
D|---------------------------------||4X
A|---------------------------------||
F|---------------------------------||
C|-0---0-00--0--00---6---0--00--0-3||
G|-0---0-00--0--00---6---0--00--0-3||
C|-0---0-00--0--00---6---0--00--0-3||
   *   * **  *  **       *  **  * *

Verse cont.
D|-----------------||1X
A|-----------------||
F|-----------------||
C|-0--0--0-000--5--||
G|-0--0--0-000--5--||
C|-0--0--0-000--5--||
   *  *  * ***  *
Pre Chorus
D|----------------------------||1X
A|----------------------------||
F|----------------------------||
C|3------5---------6----------||
G|3------5---------6----------||
C|3------5---------6----------||

Chorus
D|-------------------------------------||4X
A|-------------------------------------||
F|-------------------------------------||
C|-------------------------------------||
G|-------------------------------------||
C|0-0-0-19-19--0-0-0-20-20--0-0-20-20--||

Pre Chorus
D|----------------------------||1X
A|----------------------------||
F|----------------------------||
C|3------5---------6----------||
G|3------5---------6----------||
C|3------5---------6----------||

Chorus
D|-------------------------------------||4X
A|-------------------------------------||
F|-------------------------------------||
C|-------------------------------------||
G|-------------------------------------||
C|0-0-0-19-19--0-0-0-20-20--0-0-20-20--||

Bridge         /-----Play--4X------------ /----Play-4X--   
D|------------|---------------------------|---------------||
A|------------|---------------------------|---------------||
F|------------|---------------------------|---------------||
C|5-----------|------3---------------3--1-|----------3----||
G|5-----------|---5---------------5-------|-------7-----5-||
C|5-----------|3--------1------1----------|----5----------||

D|----------------||3X
A|----------------||
F|----------------||
C|5---------------||
G|5---------------||
C|5---------------||

D|----------------------------||1X
A|----------------------------||
F|----------------------------||
C|3------5---------6----------||
G|3------5---------6----------||
C|3------5---------6----------||

D|-------------------------------------||2X
A|-------------------------------------||
F|-------------------------------------||
C|-------------------------------------||
G|-------------------------------------||
C|0-0-0-19-19--0-0-0-20-20--0-0-20-20--||

D|----------------------------||1X
A|----------------------------||
F|----------------------------||
C|3------5---------6----------||
G|3------5---------6----------||
C|3------5---------6----------||

D|-------------------------------------||2X
A|-------------------------------------||
F|-------------------------------------||
C|-------------------------------------||
G|-------------------------------------||
C|0-0-0-19-19--0-0-0-20-20--0-0-20-20--||

D|-------------------------------------||2X
A|-------------------------------------||
F|-------------------------------------||
C|-------------------------------------||
G|-------------------------------------||
C|0-0-0-19-19--0-0-0-20-20--0-0-20-20--||

D|-------------------------------------||2X
A|-------------------------------------||
F|-------------------------------------||
C|-------------------------------------||
G|-------------------------------------||
C|0-0-0-19-19--0-0-0-20-20--0-0-20-20--||

D|-------------------------------------||2X
A|-------------------------------------||
F|-------------------------------------||
C|-------------------------------------||
G|-------------------------------------||
C|0-0-0-19-19--0-0-0-20-20--0-0-20-20--||

D|-------------||
A|-------------||
F|-------------||
C|3------------||
G|3------------||
C|3------------||


Текст, аккорды и табулатура для песни "I Stand Alone", исполняет "Godsmack".
Используемые в песне аккорды можно найти в разделе Как брать аккорды. Аккорды для шестиструнной гитары. Другие песни можно найти на нашем сайте, воспользовавшись алфавитным указателем вверху страницы.


Слушать онлайн I Stand Alone


GodsmackI Stand Alone на Яндекс.Музыке


 
Ошибка в тексте? Выделите ошибку и нажмите Ctrl+Enter