this song is kinda hard to tab but here it is

tunign: DROP Db (Db,Ab,Db,Gb,Bb,Eb)  or C (C,G,C,F,A,D)

Intro and Verse:

1|---------------------------------------|
2|---------------------------------------|
3|---------------------------------------|
4|--2-222--------------------------------|
5|--2-222--5--2-222----5/7--2--222-5-----|
6|--0-000--3--0-000----3/5--0--000-3-----|
    . ...     . ...  palm muting? or open? could be a mixture of both i dont really know


Chorus:

1|--------------------------------|
2|--------------------------------|
3|--------------------------------|
4|--5--2--5--2--5--2--5--2--5/7---|  repeat 3 times then
5|--3--2--3--2--3--2--3--2--3/5---|
6|-----0-----0-----0-----0--------|

1|---------------------------------------|
2|---------------------------------------|
3|---------------------------------------|
4|--77777---9999--------7777777--99999---|
5|--55555---7777--------5555555--77777---|
6|---------------------------------------|


i think the pre solo goes like

1|------------------------------|
2|------------------------------|
3|-2----------------------------|
4|-0---------------6-6-6-6-3----|
5|-0---------------6-6-6-6-3----|
6|-0---------------6-6-6-6-3----|
  ****************
*** = phaser 


1|----------------|
2|----------------|
3|----------------|
4|-0-0-0-0--8-----|
5|-0-0-0-0--6-----|
6|-0-0-0-0--------|
           *
* = use wah   ~= vibroto  p= pull off  b= bend

Solo

1|---------------------------------------------------------|
2|---------------------------------------------------------|
3|-10~~~~10~~~10~~~~~10~~~~~------------10h12b14b14b14~~~~-|
4|--------------------------12---10--12--------------------|
5|---------------------------------------------------------|
6|---------------------------------------------------------|
w/ wah


1|-10----10----10----10----10---------------------------|
2|-13b15-13b15-13b15-13b15-13b15-10----10----10----9~~~-|
3|-------------------------------12b14-12b14-12b14------|
4|------------------------------------------------------|
5|------------------------------------------------------|
6|------------------------------------------------------|
w/ wah


1|-10-12-13-15-17b18r17p15p13h15-13-17-15-13h15p13p10~~~-|
2|-------------------------------------------------------|
3|-------------------------------------------------------|
4|-------------------------------------------------------|
5|-------------------------------------------------------|
6|-------------------------------------------------------|


  if theirs any comments or corrections ill be happy to taked them at
[email protected]  well, anway have FUN AND ENJOY!!!!


Текст, аккорды и табулатура для песни "Greed", исполняет "Godsmack".
Используемые в песне аккорды можно найти в разделе Как брать аккорды. Аккорды для шестиструнной гитары. Другие песни можно найти на нашем сайте, воспользовавшись алфавитным указателем вверху страницы.


Слушать онлайн Greed


GodsmackGreed на Яндекс.Музыке


 
Ошибка в тексте? Выделите ошибку и нажмите Ctrl+Enter