This is an awesome song.  I find the beginning kind of tricky to play without
listening to the CD, but at least i figured it out.

Changes
As performed on Faceless
Written by Sully Erna and Tony Rombola

Drop-D tuning
h      hammer on
p      pull off
x      muffled strings
PM     palm mute

Intro (x4)
e[----------------------------------------------------------------
B[----------------------------------------------------------------
G[----------------------------------------------------------------
D[-0-10h12-10h12-0-12-10h12-10h12-8-x-8-8h10-8p7--7h8-8--5-3------
A[-0-10h12-10h12-0-12-10h12-10h12-8-x-8-8h10-8p7--7h8-8--5-3------
D[-0-10h12-10h12-0-12-10h12-10h12-8-x-8-8h10-8p7--7h8-8--5-3------

On the third time, Guitar 2 plays this
e[------------------------------------------------------------
B[------------------------------------------------------------
G[-7--7-7---10-10--10---9-9-9-9-------------------------------
D[-x--x-x---x--x---x----x-x-x-x-------------------------------
A[-5--5-5---8--8---8----7-7-7-7-------------------------------
D[------------------------------------------------------------

After that, an acoustic guitar plays this (x3):
e[-----------------------------------------------------
B[-----------------------------------------------------
G[-----------------------------------------------------
D[---------6-6-0---------------------------------------
A[-----------------------------------------------------
D[-0-5-6-----------------------------------------------

Then here's the verse:  
Play it three or four times    Then add this at the end
e[-----------------------------]-----------------------
B[-----------------------------]-----------------------
G[-----------------------------]--10--10-10--10--------
D[-0--6p0-x-6p0---0--6p0-x-6p0-]--10--10-10--10-10-----
A[-0--6p0-x-6p0---0--6p0-x-6p0-]--8---8--8---8--10-----
D[-0--6p0-x-6p0---0--6p0-x-6p0-]----------------10-----
  PM             PM

The chorus is the same as the intro

Play the verse again

I haven't figured out the solo, but I will give you the background guitar
e[-------------------------------]------------------------------
B[-------------------------------]------------------------------
G[-------------------------------]------------------------------
D[-5-3-5---5-8-5---5-3-5---5-8-5-]-----0-3-0---0-1-1-0----------
A[-5-3-5---5-8-5---5-3-5---5-8-5-]-----0-3-0---0-1-1-0----------  (x2)
D[-5-3-5---5-8-5---5-3-5---5-8-5-]-----0-3-0---0-1-1-0----------


Play the intro/chorus about five or six more times, and then the acoustic part

You're done

Song structure:
Intro
Acoustic verse part
Verse
Chorus
Intro (same as chorus)
Verse
Chorus
Solo
Chorus
Acoustic verse part

I'll put up the solo when I figure it out

Peace, God bless


Текст, аккорды и табулатура для песни "Changes", исполняет "Godsmack".
Используемые в песне аккорды можно найти в разделе Как брать аккорды. Аккорды для шестиструнной гитары. Другие песни можно найти на нашем сайте, воспользовавшись алфавитным указателем вверху страницы.


Слушать онлайн Changes


GodsmackChanges на Яндекс.Музыке


 
Ошибка в тексте? Выделите ошибку и нажмите Ctrl+Enter