#----------------------------------PLEASE NOTE---------------------------------#
#This file is the author's own work and represents their interpretation of the #
#song. You may only use this file for private study, scholarship, or research. #
#------------------------------------------------------------------------------#

Song: Losing Face
Band: Gob
Tabbed by: Mit ([email protected])


Verse:
e|--------------------------------------------------------------------|
B|--------------------------------------------------------------------|
G|---4---------8---8--------------------------------------------------|
D|-4-4-5---4-6-8-9-8-9------------------------------------------------|
A|-4-2-5-2-4-6-6-9-6-9------------------------------------------------|
E|-2---3-0-2-4---7---7------------------------------------------------|
Chorus:
e|--------------------------------------------------------------------|
B|--------------------------------------------------------------------|
G|---4----------------4---------8---8---8-----------------------------|
D|-4-4-5------------4-4-5---4-6-8-9-8-9-8-9-6-5-----------------------|
A|-4-2-5-2----------4-2-5-2-4-6-6-9-6-9-6-9-6-5-----------------------|
E|-2---3-0-do-twice-2---3-0-2-4---7---7---7-4-3-----------------------|

Verse2:
e|--------------------------------------------------------------------|
B|--------------------------------------------------------------------|
G|---4-------8---8-----4---------8---8---8----------------------------|
D|-4-4-5---4-8-9-8-9-4-4-5---4-6-8-9-8-9-8-9-9------------------------|
A|-4-2-5-2-4-6-9-6-9-4-2-5-2-4-6-6-9-6-9-6-9-9------------------------|
E|-2---3-0-2---7---7-2---3-0-2-4---7---7---7-7------------------------|

Outro:
e|--------------------------------------------------------------------|
B|--------------------------------------------------------------------|
G|-4------------------------------------------------------------------|
D|-4------------------------------------------------------------------|
A|-2-2----------------------------------------------------------------|
E|---0----------------------------------------------------------------|


Текст, аккорды и табулатура для песни "Losing Face", исполняет "Gob".
Используемые в песне аккорды можно найти в разделе Как брать аккорды. Аккорды для шестиструнной гитары. Другие песни можно найти на нашем сайте, воспользовавшись алфавитным указателем вверху страницы.


Слушать онлайн Losing Face


GOBLosing Face на Яндекс.Музыке


 
Ошибка в тексте? Выделите ошибку и нажмите Ctrl+Enter