--------------------------------------------------------------------
--------------------------------------------------------------------
--------------------------------------------------------------------
------4---444---4s6-4-----------------------------------------------
---s6---6-----6-------4s66-4-6-4s22---2-2---s6--4-6-4s22----2-2---s6
------------------------------------4----4---------------4----4-----

--------------------------------------------------------------------
--------------------------------------------------------------------
--------------------------------------------------------------------
--------------------------------------------------------------------
---4-6--4s22---2-2---s6---444--2-2----------------------------------
-------------4-----4------------------------------------------------


Текст, аккорды и табулатура для песни "I Hear You Calling", исполняет "Gob".
Используемые в песне аккорды можно найти в разделе Как брать аккорды. Аккорды для шестиструнной гитары. Другие песни можно найти на нашем сайте, воспользовавшись алфавитным указателем вверху страницы.


Слушать онлайн I Hear You Calling


GOBI Hear You Calling на Яндекс.Музыке


 
Ошибка в тексте? Выделите ошибку и нажмите Ctrl+Enter