Track: When one eight becomes to two zeros
Artist: glassJAw
Album: Everything you ever wanted to know about silence
Tabbed by: [email protected]

Tune to Drop 
[ ] - Bend string slightly

Intro
G:---------------------------------------------------
D:---------------------------------------------------
A:-5-5-5-5-[6]--5-5-5-5-[6]--5-5-[6]-----------------
D:---------------------------------------------------|x2|

Verse 1
G:---------------------------------------------------
D:---------------------------------------------------
A:-5-5-5-5-[6]--5-5-5-5-[6]--5-5-[6]-----------------
D:---------------------------------------------------|x8|

Verse 2
G:----------------------------------------------------
D:----------------------------------------------------
A:----------------------------------------------------
D:-0-0--0-0-|rest|-0-0--0-0---------------------------|x2|

G:-7-5-5h6h56h5-------------5---7--------------------
D:--------------3-----3-3-5--5-----------------------
A:--------------------------------------------------
D:--------------------------------------------------

Play Verse 2 again

Chorus
G:--------------------------
D:--------------------------
A:--------------------------
D:-0-0-0-3--0-0-0-3--0-0-3--|x7|

G:----------------
D:----------------
A:----------------
D:-3-3-0----------
Play this the last time

Verse 1 |x2|

Verse 2 |x2| (don't play the small solo the second time)

Chorus |x8|

Interlude
G:---------------6-6-4-----------------------------------
D:-------------4-------4-2-------------------------------
A:-5-5-5-5-5--------------5----4-4--7-7--4------------
D:--------------------------------------------------------|x4|

Chorus |x8|

Verse 1 |x8|


Текст, аккорды и табулатура для песни "When One Eight Becomes Two Zeros", исполняет "Glassjaw".
Используемые в песне аккорды можно найти в разделе Как брать аккорды. Аккорды для шестиструнной гитары. Другие песни можно найти на нашем сайте, воспользовавшись алфавитным указателем вверху страницы.


 
Ошибка в тексте? Выделите ошибку и нажмите Ctrl+Enter