Artist: Glassjaw
Song: Majour
Album: Everything You Ever Wanted To Know About Silence (2000)
Tuning: D-A-D-G
Notes:
h - Hammer-On
p - Pull-Off
~ - Let Ring


Chorus: (x4)
G|-----------------------------------------------|
D|-----------------------------------------------|
A|--7-7-7-7-7--7-7-7-7-7--3-3-3-3-3--3-3-3-3-3---|
D|-----------------------------------------------|

G|-----------------------------------------------|
D|-----------------------------------------------|
A|--0-0-0-0-0--0-0-0-0-0-------------------------|
D|------------------------3-3-3-3-3--3-3-3-3-3---|

G|----------|
D|----------|
A|----------|
D|--0-0-0---|



Verse: This has a wobbly feel
G|---------------------------------|
D|---------------------------1h2p1-|
A|---2h3p2-----2h3p2---2h3p2-------|
D|-0---------0-------0-------------| (x4)

G|------|
D|------|
A|------|
D|--0~--|

G|---------------------------------|
D|---------------------------1h2p1-|
A|---2h3p2-----2h3p2---2h3p2-------|
D|-0---------0-------0-------------| (x4)

G|-------------------------|
D|-2-2-2-2-2-2-2-2-2-2-2-2-|
A|-------------------------|
D|-------------------------|
                            
      

Pre-Chorus:
G|-----------------------------------------------------------|
D|-----------------3-3-3-3-3-3-3-3-3-3-3-3-3-3-----2------2--|
A|---------3-3-3-3-------------------------------------------|
D|-3-3-3-3-------------------------------------2-2----2-2----|

G|-------------|
D|-------------|
A|-------------|
D|--0-0-0-0-5--|
                              (               )-Not Exact
G|-----------------------------5-3----------------------------|
D|-----------------3-3-3-3-3-3-----5-4-3------------2------2--|
A|---------3-3-3-3-----------------------5-4-3----------------|
D|-3-3-3-3--------------------------------------2-2----2-2----|

G|-------------|
D|-------------|
A|-------------|
D|--0-0-0-0-5--|



Chorus: (x2)



Verse: (x1)



Pre-Chorus: (x1)



Last Chorus: (x2)
G|-------------------------------------------------------|
D|-------------------------------------------------------|
A|--7-7-7-7-7--7-7-7-7-7--10-10-10-10-10--10-10-10-10-10-|
D|-------------------------------------------------------|

G|-----------------------------------------------------------------|
D|-----------------------------------------------------------------|
A|--12-12-12-12-12--12-12-12-12-12--15-15-15-15-15--15-15-15-15-15-|
D|-----------------------------------------------------------------|

G|----------| < 1st time only
D|----------|
A|----------|
D|--0-0-0---|

Last Chorus Continued: (x2)
G|-------------------------------------------------------------------|
D|-------------------------------------------------------------------|
A|--7-7-7-7-7-7-7-7-7-7-7-7-7-7-7-7-10-10-10-10-10-10-10-10-10-10-10-|
D|-------------------------------------------------------------------|

G|---------------------------------------------------------------------------|
D|---------------------------------------------------------------------------|
A|-12-12-12-12-12-12-12-12-12-12-12-15-15-15-15-15-15-15-15-15-15-15-15-(7~)-|
D|---------------------------------------------------------------------------|
                                                          Last time only /
Outro: Play slowly (x3)
G|---------------------------------------------|
D|---------------------------------------------|
A|-2-------2-------2-------3------3------3-----|
D|-----2-------2-------2-------3------3-----3--|


Текст, аккорды и табулатура для песни "Majour", исполняет "Glassjaw".
Используемые в песне аккорды можно найти в разделе Как брать аккорды. Аккорды для шестиструнной гитары. Другие песни можно найти на нашем сайте, воспользовавшись алфавитным указателем вверху страницы.


 
Ошибка в тексте? Выделите ошибку и нажмите Ctrl+Enter