Band:Glassjaw
Song:FlagBurning Dakota
Album:unreleased demo
Tuning:Drop D
tabbed by:intheaisleyelling
This is one of my favorite Glassjaw songs. 
Its different from there new stuff, but its still really good.

Intro
E ----------------------------------------------
B ----------------------------------------------
G -----*5---------------------------------------
D -0---*5---0-----------------------------------
A -0--------0-----------------------------------
D -0--------0---->pick scrape down the string>--

verse-this is the only part I'm not 100% sure on cause the recording of the song is bad.
E ----------------
B ----------------
G -11-------------
D -9------8-------
A -7(x6)--6-------
D --------6(x10)--

small fill
E -------------------
B -------------------
G -------------------
D -------------------
A -2222222223333333--
D -2222222223333333--

chorus-palm mute the notes that are dotted. Play this twice.
E -0-0-0-0-----------------------------------------------
B -0-0-0-0-----------------------------------------------
G -6-6-6-6-----------------------------------------------
D -6-6-6-6-----------------------------------------------
A -4-4-4-4-222320222320233/5--0-0-0-0-222320222320233/5--
D ---------222320222320233/5--0-0-0-0-222320222320233/5--
         pm..  pm..         pm..........    ..

Harmonics before second verse
E -------
B -------
G -*12---
D -*12---
A -------
D -------

Second Verse

Chorus

fill before bridge
E ----------------------------------------------------
B ----------------------------------------------------
G ----------------------------------------------------
D -----------------7777777777777777-------8888888888--
A -----------------5555555555555555-9999996666666666--
D -0000000000000000-----------------9998886666666666--

bridge-play this 4x
E ------------------
B ------------------
G ------------------
D -444--8888888888--
A -222--6666666666--
D -222--6666666666--

small fill before outro
E -------------------
B -------------------
G -------------------
D -------------------
A -2222222223333333--
D -2222222223333333--

the outro is just the ninth chords in the bridge but inverted like this
E ------------------
B ------------------
G ------------------
D -88888-4-4-4-4-4--
A -66666-2-2-2-2-2--
D -66666-2-2-2-2-2--


Текст, аккорды и табулатура для песни "Flagburning Dakota", исполняет "Glassjaw".
Используемые в песне аккорды можно найти в разделе Как брать аккорды. Аккорды для шестиструнной гитары. Другие песни можно найти на нашем сайте, воспользовавшись алфавитным указателем вверху страницы.


 
Ошибка в тексте? Выделите ошибку и нажмите Ctrl+Enter