Artist: Glassjaw
Tabber: Tom Lasala
Song: Faust
Album: Nys Hardest

Standard Tuning 


INTRO/VERSE

                         
E-------------------------------------------------------------------------------------------------||  
B-------------------------------------------------------------------------------------------------|| 
G--------------------------------------------------------0-0-0-------------5-----------7----------||  
D---2-----------------2------2---------------------0-----0-0-0----------3-----------7-------------||   
A---2--0-2-3-2-0-2----2------2--0-2-3-2-0-2------2---2---2-2-2----0--3--------0--5----------------||  
E---0--------------3--0------0----------------3----------3-3-3------------------------------------||   

PRE-CHORUS/CHORUS

E--------------------
B----------------3---
G-------4--5--4--0---
D---2---2--5--2--0---
A---2---2--3--2------
E---0------------3---

E--------------------
B--------------------
G-------4--5--4------
D---2---2--5--2--2---
A---2---2--3--2--2---
E---0------------0---

E-----------------10-
B-----------------10-
G-------4--5--4---10-
D---2---2--5--2---10-
A---2---2--3--2----8-
E---0----------------

BRIDGE
(to cry, to cry, to cry!!)
E-----------------------------------
B-----------------------------------
G--------0---------0----------0-----
D------4---4-----3---3------4---4---
A-------------------------5---------
E----0---------1--------------------
(it's always on my mind....)
E-------------------------------------------------
B-------------------------------------------------
G-------------------------------------------------
D-------8^9---------6^7---------3-3-3-2-2-2-------
A--7777-----7--5555-----5-----3-3-3-3-3-3-3-------
E-------------------------------------------------
2nd time only
E----------------------------------
B----------------------------------
G---------------------------5...---
D-------8^9---------6^7-----5...---
A--7777-----7--8888-----8---3...---
E----------------------------------

HARDCORE BREAKDOWN
(i wont stay there, no i wont....)
E-------------------------------
B-------------------------------
G--4--5--4--2--3--5-------------
D--4--5--4--2--3--5---7-5-4-----
A--2--3--2--0--2--3---5-3-2-5---
E---------------------------3---


Текст, аккорды и табулатура для песни "Faust", исполняет "Glassjaw".
Используемые в песне аккорды можно найти в разделе Как брать аккорды. Аккорды для шестиструнной гитары. Другие песни можно найти на нашем сайте, воспользовавшись алфавитным указателем вверху страницы.


 
Ошибка в тексте? Выделите ошибку и нажмите Ctrl+Enter