Artist: Glassjaw
Song: Everything You Ever Wanted To Know About Silence
Album: Everything You Ever Wanted To Know About Silence (2000)
Tuning: D-A-D-G
Notes:
h - Hammer-On
~ - Let Ring
x - Mute Note


Verse: (x6) 
G|-----------------------------------|
D|--5---4---5---4---5---4---5---4----|
A|-----------------------------------|
D|----5---5---5---5---5---5---5---5--|

G|-----------------------------------|
D|--2---4---2---4---2---4---2---4----|
A|-----------------------------------|
D|----2---2---2---2---2---2---2---2--|



Chorus: (x2)
G|--------------------------------|
D|-0---0---0---0---0---0---0---0--|
A|--------------------------------|
D|---0-------0-------0-------0----|

G|--------------------------------|
D|-4---4---4---4---4---4---4---4--|
A|--------------------------------|
D|---4-------4-------4-------4----|



Verse (x4)



Chorus: (x2)



Interlude: (x2)
G|---------------------------------------------------|
D|---------------------------------------------------|
A|---------------12-----------------------12---------|
D|-12--12-12--12-----12-12--12--12-12--12-----12-12--|

G|-----------------------------------|
D|-----------------------------------|
A|-----------9----------------9------|
D|-9--9-9--9---9-9--9--9-9--9---9-9--|

G|-----------------------------------|
D|-----------------------------------|
A|-----------7----------------7------|
D|-7--7-7--7---7-7--7--7-7--7---7-7--|

G|-----------------------------------|
D|-----------------------------------|
A|-----------5----------------5------|
D|-5--5-5--5---5-5--5--5-5--5---5-5--|



Post-Interlude:             Progressively slow down
G|----------------------------------------------------------------------|
D|--5---4---5---4---5---4---5---4---4----3------4-------2-------2-------|
A|----------------------------------------------------------------------|
D|----5---5---5---5---5---5---5---5---4-----4-------4-------3--------2--|



Breakdown:
G|-----------------------------------------------------------------------------|
D|-----------------------------------------------------------------------------|
A|-----------------------------------------------------------------------------|
D|-0h2-2-0h2xxx0h2-2-0h2xxx0-0-0--0-0xxx0-0-0--0-0xxx/6-6-6--6-6xxx/6-6-6--6-6-|

G|----------------------------|
D|----------------------------|
A|----------------------------|
D|-xxx0-0-0--0-0xxx0-0-0--0-0-|



2nd Interlude: (x2)
G|---------------------------------------------------|
D|---------------------------------------------------|
A|---------------------------------------------------|
D|-12--12-12--12--12--12-12--12--12-12--12-12--12-12-|

G|-----------------------------------|
D|-----------------------------------|
A|-----------------------------------|
D|-9--9-9--9-9--9-9--9--9-9--9-9-9-9-|

G|-----------------------------------|
D|-----------------------------------|
A|-----------------------------------|
D|-7--7-7--7-7-7-7--7--7-7--7-7-7-7--|

G|-----------------------------------|
D|-----------------------------------|
A|-----------------------------------|
D|-5--5-5--5-5-5-5--5--5-5--5-5-5-5--|



Outro:
G|----------------------------------------------------|
D|----------------------------------------------------|
A|----------------------------------------------------|
D|-12-12-12-12-12-12-12-12-12-12-12-12-12-12-12-12-12-|

G|-----------------------------------|
D|-----------------------------------|
A|-----------------------------------|
D|-9-9-9-9-9-9-9-9-9-9-9-9-9-9-9-9-9-|

G|-----------------------------------|
D|-----------------------------------|
A|-----------------------------------|
D|-7-7-7-7-7-7-7-7-7-7-7-7-7-7-7-7-7-|

G|---------------------------------------|
D|---------------------------------------|
A|---------------------------------------|
D|-5-5-5-5-5-5-5-5-5-5-5-5-5-5-5-5-5-0~--|


Текст, аккорды и табулатура для песни "Everything You Ever Wanted To Know About Silence", исполняет "Glassjaw".
Используемые в песне аккорды можно найти в разделе Как брать аккорды. Аккорды для шестиструнной гитары. Другие песни можно найти на нашем сайте, воспользовавшись алфавитным указателем вверху страницы.


 
Ошибка в тексте? Выделите ошибку и нажмите Ctrl+Enter