Glassjaw - Ape Dos Mil

The accuracy of this tab may not be souper good, but its the best 
i could get out of the live version ive heard. so here goes something.

h: hammer-on
p: pull-off

Tuning: DADGBE

Verse
Chorus
Verse
Chorus x2
Bridge
Chorus x4

Guitar 1:  Verse 

E|-------------------|
B|-------------------|
G|-12-------12-------|
D|-------14-------14-|  repeated randomly through the verse.
A|-------------------|
D|-------------------|

Guitar 2: Verse
PM'd

E|-----------|
B|-----------|
G|-9-7-5-2---|
D|-7-5-3-4---|
A|-9-7-5-----|
D|-----------|


Guitar 2: Chorus Lead

E|-------------------------------------------------|
B|---------15------------------12h15p12------------|
G|----12-------12----12---12---------------12------|
D|-14----14-------14---14---14----------14---------|
A|--------------------------------------------(14)-|
D|-------------------------------------------------|

Guitar 1: Chorus

E|------------|         E|---|
B|-3----------| end on  B|---|
G|-4-7-5-4-3--|         G|---|
D|-2-7-5-4-3--|         D|-3-|
A|-0-5-3-2-1--|         A|-3-|
D|-0-5-3-2-1--|         D|-1-|


Guitar 2: Bridge

E|-----------|                                                E|-----------|     
B|-----------|                                                B|-----------|  
G|-----------|  played all the way up where the vocals start  G|-----------|  in one version of the song, there is some weird
D|-7777-5555-|  after that its just                           D|-7~---5~---|  bass solo and guitar tremolo effect, i dont know
A|-9999-7555-|                                                A|-9~---7~---|  what the notes are because i figgered this was just
D|-----------|                                                D|-----------|  improv, the more recent version did not inculde the bass
                                                                              solo thinger and tremolo effect.

Guitar 1: Bridge Lead

E|---------------------------------------------|
B|-------15--------15--------------------------|
G|----12---12----12----------------------------|
D|-14----------14------------------------------|
A|---------------------------------------------|
D|---------------------------------------------|


Текст, аккорды и табулатура для песни "Ape Dos Mil", исполняет "Glassjaw".
Используемые в песне аккорды можно найти в разделе Как брать аккорды. Аккорды для шестиструнной гитары. Другие песни можно найти на нашем сайте, воспользовавшись алфавитным указателем вверху страницы.


 
Ошибка в тексте? Выделите ошибку и нажмите Ctrl+Enter