GlassJAw - When One Eight Become Two Zeros
From the Album 'Everything You ever wanted to know about silence)
Tuning - Drop D

Intro (bass tabbed for guitar) x2
E---------------------------------------|
B---------------------------------------|
G---------------------------------------|
D---------------------------------------|
A-5-5-5-5-5h6p5-5-5-5-5-5h6p5-5-5-5h6p5-|
D-0-------------------------------------|
 (let root note (low D) ring)

Intro x2
GTR 1 (with flange effect)
E---------------------------------|
B---6-5-6---6-5-----6-5-6---6-5---|
G---------------5---------------5-|
D-0-------0-------0-------0-------|
A-0-------0-------0-------0-------|
D-0-------0-------0-------0-------|

GTR 2
E---------------------------------|
B---------------------------------|
G---------------------------------|
D-0-------0-------0-------0-------|
A-0-------0-------0-------0-------|
D-0-------0-------0-------0-------|


GTR 1 & 2
E---------------------------------|
B---------------------------------|
G---------------------------------|
D-0----------(let ring)-----------|
A-0-------------------------------|
D-0-------------------------------|

Verse (bass tabbed for guitar) x2
E-------------------------------------------------------|
B-------------------------------------------------------|
G-------------------------------------------------------|
D-------------------------------------------------------|
A----------------------------/5-3-2h3p2--------------5-|
D-0-0----0-0-----0-0----0-0------------3----0-3h5-0-0---|

Chorus x2 (knee deep in static...)
E----------------------------------------------------|
B----------------------------------------------------|
G-------10-------10-----10---------------------------|
D-------10-------10-----10-------3--------3------3---|
A-0-0-0-8--0-0-0-8--0-0-8--0-0-0-3--0-0-0-3--0-0-3---|
D-0-0-0-8--0-0-0-8--0-0-8--0-0-0-3--0-0-0-3--0-0-3---|
 |-PM--|  |-PM--|  |PM-|  |-PM--|  |-PM--|  |PM------|

Lead over chorus riff(listen to song to get timing right)
E-17-----------17----------------------------------|
B-------17-18-----17-18--------15----------15------|
G-----------------------17-15--------17--------17--|
D--------------------------------------------------|
A--------------------------------------------------|
D--------------------------------------------------|

2nd part of chorus x2 (your not the other woman...)
E------------------------------------------|
B------------------------------------------|
G-------10-10-10-------10-10-10-----10-10--|
D-------10-10-10-------10-10-10-----10-10--|
A-0-0-0-8--8--8--0-0-0-8--8--8--0-0-8--8---|
D-0-0-0-8--8--8--0-0-0-8--8--8--0-0-8--8---|
 |-PM--|        |-PM--|        |PM---------|

E-------------------------------------|
B-------------------------------------|
G-------------------------------------|
D-------3-3-3--------3-3-3------3-3---|
A-0-0-0-3-3-3--0-0-0-3-3-3--0-0-3-3---|
D-0-0-0-3-3-3--0-0-0-3-3-3--0-0-3-3---|
 |-PM--|      |-PM--|      |PM--------|

last part of chorus (guy like me...)
E---------|
B---------|
G---------|
D-3--3--0-|
A-3--3--0-|
D-3--3--0-|

lead over last part of chorus
E-13-------13-------13-------13-------13-------13-|
B----10h11----10h11----10h11----10h11----10h11----|
G-------------------------------------------------|
D-------------------------------------------------|
A-------------------------------------------------|
D-------------------------------------------------|

E-------13-------13-|
B-10h11----10h11----|
G-------------------|
D-------------------|
A-------------------|
D-------------------|

Bridge
Gtr 1 x3
E-------------------------------------------------|
B-------------------------------------------------|
G-------------------------------------------------|
D-7-7-7-7-7-7-7-7-7-7-7-4-4-4-4-4-2-2-2-2-2-2-2-2-|
A-5-5-5-5-5-5-5-5-4-4-4-2-2-2-2-2-0-0-0-0-0-0-0-0-|
D-------------------------------------------------|

E-----------------|
B-----------------|
G-----------------|
D-7-7-7-7-4-4-4-4-|
A-4-4-4-4-2-2-2-2-|
D-----------------|

x1                               |(guitar 2 also plays
E--------------------------------------------------|
B--------------------------------------------------|
G--------------------------------------------------|
D-7-7-7-7-7-7-7-7-7-7-7-4-4-4-4-4-2-2-2-2-2-2-2-2--|
A-5-5-5-5-5-5-5-5-4-4-4-2-2-2-2-2-0-0-0-0-0-0-0-0--|
D--------------------------------------------------|
                                 |--------PM-------|
 this part)
E-------------------|
B-------------------|
G-------------------|
D-2-2-2-2-2-2-2-2---|
A-0-0-0-0-0-0-0-0---|
D-------------------|
 ------PM-----------|

Gtr 2 lead over bridge
E-------------------------------------------------------|
B-10-10-10-10-10-10-10-10-10-10-10-10-10-10-10-10-10-10-|
G-9--9--9--9--9--9--9--9--9--9--9--9--9--9--9--9--9--9--|
D-------------------------------------------------------|
A-------------------------------------------------------|
D-------------------------------------------------------|

E-------------------------------------------------------|
B-10-10-10-10-10-10-9-9-9-9-9-9-9-9-7-7-7-7-7-7-7-7-7-7-|
G-9--9--9--9--9--9--9-9-9-9-9-9-9-9-7-7-7-7-7-7-7-7-7-7-|
D-------------------------------------------------------|
A-------------------------------------------------------|
D-------------------------------------------------------|

E-------------------------------------------------------|
B-7-7-7-9-9-9-10-10-10-10-10-10-10-10-10-10-10-10-10-10-|
G-7-7-7-9-9-9-9--9--9--9--9--9--9--9--9--9--9--9--9--9--|
D-------------------------------------------------------|
A-------------------------------------------------------|
D-------------------------------------------------------|

E-------|
B-10-10-|
G-9--9--|
D-------|
A-------|
D-------|

E-------------------------------------------------------|
B-------------------------------------------------------|
G-----6-----6-----6-----6-----6-----9-----9-----9-----9-|
D-7-9---7-9---7-9---7-9---7-9---7-9---7-9---7-9---7-9---|
A-------------------------------------------------------|
D-------------------------------------------------------|

E--------------------------------------|
B--------------------------------------|
G------9-----6-----6-----6-----6-----6-|
D--7-9---7-9---7-9---7-9---7-9---7-9---|
A--------------------------------------|
D--------------------------------------|

End chord
E---|
B---|
G---|
D-0-|
A-0-|
D-0-|
 PM (rest your finger on top of the strings at the first fret to mute the strings and strike the chord)


Текст, аккорды и табулатура для песни "When One Eight Becomes Two Zeros", исполняет "Glass Jaw".
Используемые в песне аккорды можно найти в разделе Как брать аккорды. Аккорды для шестиструнной гитары. Другие песни можно найти на нашем сайте, воспользовавшись алфавитным указателем вверху страницы.


 
Ошибка в тексте? Выделите ошибку и нажмите Ctrl+Enter