Glassjaw
Piano                                 


Guitar 1
                                                          
E||------------------|------------------|------------------|
B||------------------|------------------|------------------|
G||------------------|------------------|------------------|
D||------------------|------------------|------------------|
A||------------------|------------------|------------------|
D||------------------|------------------|------------------|


                                                         
------------------|------------------|------------------|
------------------|------------------|------------------|
------------------|------------------|------------------|
------------------|------------------|------------------|
------------------|------------------|------------------|
------------------|------------------|------------------|


                                                                     
------------------|------------------|------------------------------|
------------------|------------------|------------------------------|
------------------|------------------|------------------------------|
------------------|------------------|--0--0--0--0--10--10--10--10--|
------------------|------------------|--0--0--0--0--10--10--10--10--|
------------------|------------------|--0--0--0--0--10--10--10--10--|


                                                          
------------------------------|--------------------------|
------------------------------|--------------------------|
------------------------------|--5--5--5--5--5--5--5--5--|
--0--0--0--0--10--10--10--10--|--7--7--7--7--7--7--7--7--|
--0--0--0--0--10--10--10--10--|--8--8--8--8--8--8--8--8--|
--0--0--0--0--10--10--10--10--|--8--8--8--8--8--8--8--8--|


                                                          
--------------------------|------------------------------|
--------------------------|------------------------------|
--5--5--5--5--5--5--5--5--|------------------------------|
--7--7--7--7--7--7--7--7--|--0--0--0--0--10--10--10--10--|
--8--8--8--8--8--8--8--8--|--0--0--0--0--10--10--10--10--|
--8--8--8--8--8--8--8--8--|--0--0--0--0--10--10--10--10--|


                                                          
------------------------------|--------------------------|
------------------------------|--------------------------|
------------------------------|--5--5--5--5--5--5--5--5--|
--0--0--0--0--10--10--10--10--|--7--7--7--7--7--7--7--7--|
--0--0--0--0--10--10--10--10--|--8--8--8--8--8--8--8--8--|
--0--0--0--0--10--10--10--10--|--8--8--8--8--8--8--8--8--|


                                                          
--------------------------|------------------------------|
--------------------------|------------------------------|
--5--5--5--5--5--5--5--5--|------------------------------|
--7--7--7--7--7--7--7--7--|--10--10--10--10--0--0--0--0--|
--8--8--8--8--8--8--8--8--|--10--10--10--10--0--0--0--0--|
--8--8--8--8--8--8--8--8--|--10--10--10--10--0--0--0--0--|


                                                          
------------------------------|--------------------------|
------------------------------|--------------------------|
------------------------------|--5--5--5--5--5--5--5--5--|
--10--10--10--10--0--0--0--0--|--7--7--7--7--7--7--7--7--|
--10--10--10--10--0--0--0--0--|--8--8--8--8--8--8--8--8--|
--10--10--10--10--0--0--0--0--|--8--8--8--8--8--8--8--8--|


                                                          
--------------------------|------------------------------|
--------------------------|------------------------------|
--5--5--5--5--5--5--5--5--|------------------------------|
--7--7--7--7--7--7--7--7--|--0--0--0--0--10--10--10--10--|
--8--8--8--8--8--8--8--8--|--0--0--0--0--10--10--10--10--|
--8--8--8--8--8--8--8--8--|--0--0--0--0--10--10--10--10--|


                                                          
------------------------------|--------------------------|
------------------------------|--------------------------|
------------------------------|--5--5--5--5--5--5--5--5--|
--0--0--0--0--10--10--10--10--|--7--7--7--7--7--7--7--7--|
--0--0--0--0--10--10--10--10--|--8--8--8--8--8--8--8--8--|
--0--0--0--0--10--10--10--10--|--8--8--8--8--8--8--8--8--|


                                                  
--------------------------|----------------------|
--------------------------|----------------------|
--5--5--5--5--5--5--5--5--|----------------------|
--7--7--7--7--7--7--7--7--|--4----4----4----4----|
--8--8--8--8--8--8--8--8--|--4----4----4----4----|
--8--8--8--8--8--8--8--8--|--4----4----4----4----|


                                                                     
----------------------|----------------------|----------------------|
----------------------|----------------------|----------------------|
----------------------|----------------------|----------------------|
--4----4----4----4----|--0----0----0----0----|--0----0----0----0----|
--4----4----4----4----|--0----0----0----0----|--0----0----0----0----|
--4----4----4----4----|--0----0----0----0----|--0----0----0----0----|


                                                                     
----------------------|----------------------|----------------------|
----------------------|----------------------|----------------------|
----------------------|----------------------|----------------------|
--2----2----2----2----|--2----2----2----2----|--0----0----0----0----|
--2----2----2----2----|--2----2----2----2----|--0----0----0----0----|
--2----2----2----2----|--2----2----2----2----|--0----0----0----0----|


                                                                     
----------------------|----------------------|----------------------|
----------------------|----------------------|----------------------|
----------------------|----------------------|----------------------|
--0----0----0----0----|--4----4----4----4----|--4----4----4----4----|
--0----0----0----0----|--4----4----4----4----|--4----4----4----4----|
--0----0----0----0----|--4----4----4----4----|--4----4----4----4----|


                                                                     
----------------------|----------------------|----------------------|
----------------------|----------------------|----------------------|
----------------------|----------------------|----------------------|
--0----0----0----0----|--0----0----0----0----|--2----2----2----2----|
--0----0----0----0----|--0----0----0----0----|--2----2----2----2----|
--0----0----0----0----|--0----0----0----0----|--2----2----2----2----|


                                                                     
----------------------|----------------------|----------------------|
----------------------|----------------------|----------------------|
----------------------|----------------------|----------------------|
--2----2----2----2----|--0----0----0----0----|--0----0----0----0----|
--2----2----2----2----|--0----0----0----0----|--0----0----0----0----|
--2----2----2----2----|--0----0----0----0----|--0----0----0----0----|


                                                                     
----------------------|----------------------|----------------------|
----------------------|----------------------|----------------------|
----------------------|----------------------|----------------------|
--4----4----4----4----|--4----4----4----4----|--0----0----0----0----|
--4----4----4----4----|--4----4----4----4----|--0----0----0----0----|
--4----4----4----4----|--4----4----4----4----|--0----0----0----0----|


                                                                     
----------------------|----------------------|----------------------|
----------------------|----------------------|----------------------|
----------------------|----------------------|----------------------|
--0----0----0----0----|--2----2----2----2----|--2----2----2----2----|
--0----0----0----0----|--2----2----2----2----|--2----2----2----2----|
--0----0----0----0----|--2----2----2----2----|--2----2----2----2----|


                                                                     
----------------------|----------------------|----------------------|
----------------------|----------------------|----------------------|
----------------------|----------------------|----------------------|
--0----0----0----0----|--0----0----0----0----|--4----4----4----4----|
--0----0----0----0----|--0----0----0----0----|--4----4----4----4----|
--0----0----0----0----|--0----0----0----0----|--4----4----4----4----|


                                                                     
----------------------|----------------------|----------------------|
----------------------|----------------------|----------------------|
----------------------|----------------------|----------------------|
--4----4----4----4----|--0----0----0----0----|--0----0----0----0----|
--4----4----4----4----|--0----0----0----0----|--0----0----0----0----|
--4----4----4----4----|--0----0----0----0----|--0----0----0----0----|


                                                                     
----------------------|----------------------|----------------------|
----------------------|----------------------|----------------------|
----------------------|----------------------|----------------------|
--2----2----2----2----|--2----2----2----2----|--0----0----0----0----|
--2----2----2----2----|--2----2----2----2----|--0----0----0----0----|
--2----2----2----2----|--2----2----2----2----|--0----0----0----0----|


                                                  
------------------|------------------------------|
------------------|------------------------------|
------------------|------------------------------|
------------------|--0--0--0--0--10--10--10--10--|
------------------|--0--0--0--0--10--10--10--10--|
------------------|--0--0--0--0--10--10--10--10--|


                                                          
------------------------------|--------------------------|
------------------------------|--------------------------|
------------------------------|--5--5--5--5--5--5--5--5--|
--0--0--0--0--10--10--10--10--|--7--7--7--7--7--7--7--7--|
--0--0--0--0--10--10--10--10--|--8--8--8--8--8--8--8--8--|
--0--0--0--0--10--10--10--10--|--8--8--8--8--8--8--8--8--|


                                                          
--------------------------|------------------------------|
--------------------------|------------------------------|
--5--5--5--5--5--5--5--5--|------------------------------|
--7--7--7--7--7--7--7--7--|--0--0--0--0--10--10--10--10--|
--8--8--8--8--8--8--8--8--|--0--0--0--0--10--10--10--10--|
--8--8--8--8--8--8--8--8--|--0--0--0--0--10--10--10--10--|


                                                          
------------------------------|--------------------------|
------------------------------|--------------------------|
------------------------------|--5--5--5--5--5--5--5--5--|
--0--0--0--0--10--10--10--10--|--7--7--7--7--7--7--7--7--|
--0--0--0--0--10--10--10--10--|--8--8--8--8--8--8--8--8--|
--0--0--0--0--10--10--10--10--|--8--8--8--8--8--8--8--8--|


                                                          
--------------------------|------------------------------|
--------------------------|------------------------------|
--5--5--5--5--5--5--5--5--|------------------------------|
--7--7--7--7--7--7--7--7--|--10--10--10--10--0--0--0--0--|
--8--8--8--8--8--8--8--8--|--10--10--10--10--0--0--0--0--|
--8--8--8--8--8--8--8--8--|--10--10--10--10--0--0--0--0--|


                                                          
------------------------------|--------------------------|
------------------------------|--------------------------|
------------------------------|--5--5--5--5--5--5--5--5--|
--10--10--10--10--0--0--0--0--|--7--7--7--7--7--7--7--7--|
--10--10--10--10--0--0--0--0--|--8--8--8--8--8--8--8--8--|
--10--10--10--10--0--0--0--0--|--8--8--8--8--8--8--8--8--|


                                                          
--------------------------|------------------------------|
--------------------------|------------------------------|
--5--5--5--5--5--5--5--5--|------------------------------|
--7--7--7--7--7--7--7--7--|--0--0--0--0--10--10--10--10--|
--8--8--8--8--8--8--8--8--|--0--0--0--0--10--10--10--10--|
--8--8--8--8--8--8--8--8--|--0--0--0--0--10--10--10--10--|


                                                          
------------------------------|--------------------------|
------------------------------|--------------------------|
------------------------------|--5--5--5--5--5--5--5--5--|
--0--0--0--0--10--10--10--10--|--7--7--7--7--7--7--7--7--|
--0--0--0--0--10--10--10--10--|--8--8--8--8--8--8--8--8--|
--0--0--0--0--10--10--10--10--|--8--8--8--8--8--8--8--8--|


                                                  
--------------------------|----------------------|
--------------------------|----------------------|
--5--5--5--5--5--5--5--5--|----------------------|
--7--7--7--7--7--7--7--7--|--4----4----4----4----|
--8--8--8--8--8--8--8--8--|--4----4----4----4----|
--8--8--8--8--8--8--8--8--|--4----4----4----4----|


                                                                     
----------------------|----------------------|----------------------|
----------------------|----------------------|----------------------|
----------------------|----------------------|----------------------|
--4----4----4----4----|--0----0----0----0----|--0----0----0----0----|
--4----4----4----4----|--0----0----0----0----|--0----0----0----0----|
--4----4----4----4----|--0----0----0----0----|--0----0----0----0----|


                                                                     
----------------------|----------------------|----------------------|
----------------------|----------------------|----------------------|
----------------------|----------------------|----------------------|
--2----2----2----2----|--2----2----2----2----|--0----0----0----0----|
--2----2----2----2----|--2----2----2----2----|--0----0----0----0----|
--2----2----2----2----|--2----2----2----2----|--0----0----0----0----|


                                                                     
----------------------|----------------------|----------------------|
----------------------|----------------------|----------------------|
----------------------|----------------------|----------------------|
--0----0----0----0----|--4----4----4----4----|--4----4----4----4----|
--0----0----0----0----|--4----4----4----4----|--4----4----4----4----|
--0----0----0----0----|--4----4----4----4----|--4----4----4----4----|


                                                                     
----------------------|----------------------|----------------------|
----------------------|----------------------|----------------------|
----------------------|----------------------|----------------------|
--0----0----0----0----|--0----0----0----0----|--2----2----2----2----|
--0----0----0----0----|--0----0----0----0----|--2----2----2----2----|
--0----0----0----0----|--0----0----0----0----|--2----2----2----2----|


                                                                     
----------------------|----------------------|----------------------|
----------------------|----------------------|----------------------|
----------------------|----------------------|----------------------|
--2----2----2----2----|--0----0----0----0----|--0----0----0----0----|
--2----2----2----2----|--0----0----0----0----|--0----0----0----0----|
--2----2----2----2----|--0----0----0----0----|--0----0----0----0----|


                                                                     
----------------------|----------------------|----------------------|
----------------------|----------------------|----------------------|
----------------------|----------------------|----------------------|
--4----4----4----4----|--4----4----4----4----|--0----0----0----0----|
--4----4----4----4----|--4----4----4----4----|--0----0----0----0----|
--4----4----4----4----|--4----4----4----4----|--0----0----0----0----|


                                                                     
----------------------|----------------------|----------------------|
----------------------|----------------------|----------------------|
----------------------|----------------------|----------------------|
--0----0----0----0----|--2----2----2----2----|--2----2----2----2----|
--0----0----0----0----|--2----2----2----2----|--2----2----2----2----|
--0----0----0----0----|--2----2----2----2----|--2----2----2----2----|


                                                                     
----------------------|----------------------|----------------------|
----------------------|----------------------|----------------------|
----------------------|----------------------|----------------------|
--0----0----0----0----|--0----0----0----0----|--4----4----4----4----|
--0----0----0----0----|--0----0----0----0----|--4----4----4----4----|
--0----0----0----0----|--0----0----0----0----|--4----4----4----4----|


                                               
-----------------------|----------------------|
-----------------------|----------------------|
-----------------------|----------------------|
--4----4----4----4--4--|--0----0----0----0----|
--4----4----4----4--4--|--0----0----0----0----|
--4----4----4----4--4--|--0----0----0----0----|


                                               
-----------------------|----------------------|
-----------------------|----------------------|
-----------------------|----------------------|
--0----0----0----0--0--|--2----2----2----2----|
--0----0----0----0--0--|--2----2----2----2----|
--0----0----0----0--0--|--2----2----2----2----|


                                                                   
-------------------------|-------------------|--------------------|
-------------------------|-------------------|--------------------|
-------------------------|-------------------|--------------------|
--2--2--2----2--2--2--2--|--0----------------|--1--1--------------|
--2--2--2----2--2--2--2--|--0----------------|--1--1--------------|
--2--2--2----2--2--2--2--|--0----------------|--1--1--------------|


                                                  
------------------|------------------------------|
------------------|------------------------------|
------------------|------------------------------|
------------------|--0--0--0--0--10--10--10--10--|
------------------|--0--0--0--0--10--10--10--10--|
------------------|--0--0--0--0--10--10--10--10--|


                                                          
------------------------------|--------------------------|
------------------------------|--------------------------|
------------------------------|--5--5--5--5--5--5--5--5--|
--0--0--0--0--10--10--10--10--|--7--7--7--7--7--7--7--7--|
--0--0--0--0--10--10--10--10--|--8--8--8--8--8--8--8--8--|
--0--0--0--0--10--10--10--10--|--8--8--8--8--8--8--8--8--|


                                                          
--------------------------|------------------------------|
--------------------------|------------------------------|
--5--5--5--5--5--5--5--5--|------------------------------|
--7--7--7--7--7--7--7--7--|--0--0--0--0--10--10--10--10--|
--8--8--8--8--8--8--8--8--|--0--0--0--0--10--10--10--10--|
--8--8--8--8--8--8--8--8--|--0--0--0--0--10--10--10--10--|


                                                          
------------------------------|--------------------------|
------------------------------|--------------------------|
------------------------------|--5--5--5--5--5--5--5--5--|
--0--0--0--0--10--10--10--10--|--7--7--7--7--7--7--7--7--|
--0--0--0--0--10--10--10--10--|--8--8--8--8--8--8--8--8--|
--0--0--0--0--10--10--10--10--|--8--8--8--8--8--8--8--8--|


                                                          
--------------------------|------------------------------|
--------------------------|------------------------------|
--5--5--5--5--5--5--5--5--|------------------------------|
--7--7--7--7--7--7--7--7--|--10--10--10--10--0--0--0--0--|
--8--8--8--8--8--8--8--8--|--10--10--10--10--0--0--0--0--|
--8--8--8--8--8--8--8--8--|--10--10--10--10--0--0--0--0--|


                                                          
------------------------------|--------------------------|
------------------------------|--------------------------|
------------------------------|--5--5--5--5--5--5--5--5--|
--10--10--10--10--0--0--0--0--|--7--7--7--7--7--7--7--7--|
--10--10--10--10--0--0--0--0--|--8--8--8--8--8--8--8--8--|
--10--10--10--10--0--0--0--0--|--8--8--8--8--8--8--8--8--|


                                                          
--------------------------|------------------------------|
--------------------------|------------------------------|
--5--5--5--5--5--5--5--5--|------------------------------|
--7--7--7--7--7--7--7--7--|--0--0--0--0--10--10--10--10--|
--8--8--8--8--8--8--8--8--|--0--0--0--0--10--10--10--10--|
--8--8--8--8--8--8--8--8--|--0--0--0--0--10--10--10--10--|


                                                          
------------------------------|--------------------------|
------------------------------|--------------------------|
------------------------------|--5--5--5--5--5--5--5--5--|
--0--0--0--0--10--10--10--10--|--7--7--7--7--7--7--7--7--|
--0--0--0--0--10--10--10--10--|--8--8--8--8--8--8--8--8--|
--0--0--0--0--10--10--10--10--|--8--8--8--8--8--8--8--8--|


                                                                   
--------------------------|----|----|----|----|----|----|----|----|
--------------------------|----|----|----|----|----|----|----|----|
--5--5--5--5--5--5--5--5--|----|----|----|----|----|----|----|----|
--7--7--7--7--7--7--7--7--|----|----|----|----|----|----|----|----|
--8--8--8--8--8--8--8--8--|----|----|----|----|----|----|----|----|
--8--8--8--8--8--8--8--8--|----|----|----|----|----|----|----|----|


                                                  
----|----|----|----|-----------------------------|
----|----|----|----|-----------------------------|
----|----|----|----|--11--9--8--11--9--8--11--9--|
----|----|----|----|-----------------------------|
----|----|----|----|-----------------------------|
----|----|----|----|-----------------------------|


                                                                     
---------------------------|----|----|------------------------------|
---------------------------|----|----|------------------------------|
--8--11--9--8--11--9--8----|----|----|--6----6----6----6------------|
---------------------------|----|----|--6----6----6----6------------|
---------------------------|----|----|--4----4----4----4------------|
---------------------------|----|----|------------------------------|


                                         
----|------------------------------|----|
----|------------------------------|----|
----|--6----6----6----6------------|----|
----|--6----6----6----6------------|----|
----|--4----4----4----4------------|----|
----|------------------------------|----|


                                                           
-----------------------------|----------------------------|
-----------------------------|----------------------------|
--11--9--8--11--9--8--11--9--|--8--11--9--8--11--9--8--9--|
-----------------------------|----------------------------|
-----------------------------|----------------------------|
-----------------------------|----------------------------|


                                                      
--------7--------7--------|--7--------7--------7-----|
--------------------------|--------------------------|
--8h-9-----8h-9-----8h-9--|-----8h-9-----8h-9-----8--|
--------------------------|--------------------------|
--------------------------|--------------------------|
--------------------------|--------------------------|


                                                                   
------------------------------|----|------------------------------|
------------------------------|----|------------------------------|
--6----6----6----6------------|----|--6----6----6----6------------|
--6----6----6----6------------|----|--6----6----6----6------------|
--4----4----4----4------------|----|--4----4----4----4------------|
------------------------------|----|------------------------------|


                                                                
----|-----------------------------|----------------------------|
----|-----------------------------|----------------------------|
----|--11--9--8--11--9--8--11--9--|--8--11--9--8--11--9--8--9--|
----|-----------------------------|----------------------------|
----|-----------------------------|----------------------------|
----|-----------------------------|----------------------------|


                                                     
--------7--------7--------|--7--------7--------7----|
--------------------------|-------------------------|
--8h-9-----8h-9-----8h-9--|-----8h-9-----8h-9-------|
--------------------------|-------------------------|
--------------------------|-------------------------|
--------------------------|-------------------------|


                                                      
--------------------------|--------------------------|
--------------------------|--------------------------|
--6--6--6--6--6--6--6--6--|--6--6--6--6--6--6--6--6--|
--6--6--6--6--6--6--6--6--|--6--6--6--6--6--6--6--6--|
--4--4--4--4--4--4--4--4--|--0--0--0--0--0--0--0--0--|
--------------------------|--------------------------|


                                                      
--------------------------|--------------------------|
--------------------------|--------------------------|
--6--6--6--6--6--6--6--6--|--6--6--6--6--6--6--6--6--|
--6--6--6--6--6--6--6--6--|--6--6--6--6--6--6--6--6--|
--2--2--2--2--2--2--2--2--|--4--4--4--4--4--4--4--4--|
--------------------------|--4--4--4--4--4--4--4--4--|


                                                      
--------------------------|--------------------------|
--------------------------|--------------------------|
--6--6--6--6--6--6--6--6--|--6--6--6--6--6--6--6--6--|
--6--6--6--6--6--6--6--6--|--6--6--6--6--6--6--6--6--|
--4--4--4--4--4--4--4--4--|--0--0--0--0--0--0--0--0--|
--------------------------|--------------------------|


                                                      
--------------------------|--------------------------|
--------------------------|--------------------------|
--6--6--6--6--6--6--6--6--|--6--6--6--6--6--6--6--6--|
--6--6--6--6--6--6--6--6--|--6--6--6--6--6--6--6--6--|
--2--2--2--2--2--2--2--2--|--4--4--4--4--4--4--4--4--|
--------------------------|--4--4--4--4--4--4--4--4--|


                                                      
--------------------------|--------------------------|
--------------------------|--------------------------|
--6--6--6--6--6--6--6--6--|--6--6--6--6--6--6--6--6--|
--6--6--6--6--6--6--6--6--|--6--6--6--6--6--6--6--6--|
--4--4--4--4--4--4--4--4--|--0--0--0--0--0--0--0--0--|
--------------------------|--------------------------|


                                                      
--------------------------|--------------------------|
--------------------------|--------------------------|
--6--6--6--6--6--6--6--6--|--6--6--6--6--6--6--6--6--|
--6--6--6--6--6--6--6--6--|--6--6--6--6--6--6--6--6--|
--2--2--2--2--2--2--2--2--|--4--4--4--4--4--4--4--4--|
--------------------------|--4--4--4--4--4--4--4--4--|


                                                      
--------------------------|--------------------------|
--------------------------|--------------------------|
--6--6--6--6--6--6--6--6--|--6--6--6--6--6--6--6--6--|
--6--6--6--6--6--6--6--6--|--6--6--6--6--6--6--6--6--|
--4--4--4--4--4--4--4--4--|--0--0--0--0--0--0--0--0--|
--------------------------|--------------------------|


                                                            
--------------------------|--------------------------------|
--------------------------|--------------------------------|
--6--6--6--6--6--6--6--6--|--6----6----6----6----6----6----|
--6--6--6--6--6--6--6--6--|--6----6----6----6----6----6----|
--2--2--2--2--2--2--2--2--|--4----4----4----4----4----4----|
--------------------------|--4----4----4----4----4----4----|


                                                      
--------------------------|--------------------------|
--------------------------|--------------------------|
--6--6--6--6--6--6--6--6--|--6--6--6--6--6--6--6--6--|
--6--6--6--6--6--6--6--6--|--6--6--6--6--6--6--6--6--|
--4--4--4--4--4--4--4--4--|--0--0--0--0--0--0--0--0--|
--------------------------|--------------------------|


                                                      
--------------------------|--------------------------|
--------------------------|--------------------------|
--6--6--6--6--6--6--6--6--|--6--6--6--6--6--6--6--6--|
--6--6--6--6--6--6--6--6--|--6--6--6--6--6--6--6--6--|
--2--2--2--2--2--2--2--2--|--4--4--4--4--4--4--4--4--|
--------------------------|--4--4--4--4--4--4--4--4--|


                                                      
--------------------------|--------------------------|
--------------------------|--------------------------|
--6--6--6--6--6--6--6--6--|--6--6--6--6--6--6--6--6--|
--6--6--6--6--6--6--6--6--|--6--6--6--6--6--6--6--6--|
--4--4--4--4--4--4--4--4--|--0--0--0--0--0--0--0--0--|
--------------------------|--------------------------|


                                                      
--------------------------|--------------------------|
--------------------------|--------------------------|
--6--6--6--6--6--6--6--6--|--6--6--6--6--6--6--6--6--|
--6--6--6--6--6--6--6--6--|--6--6--6--6--6--6--6--6--|
--2--2--2--2--2--2--2--2--|--4--4--4--4--4--4--4--4--|
--------------------------|--4--4--4--4--4--4--4--4--|


                                                      
--------------------------|--------------------------|
--------------------------|--------------------------|
--6--6--6--6--6--6--6--6--|--6--6--6--6--6--6--6--6--|
--6--6--6--6--6--6--6--6--|--6--6--6--6--6--6--6--6--|
--4--4--4--4--4--4--4--4--|--0--0--0--0--0--0--0--0--|
--------------------------|--------------------------|


                                                      
--------------------------|--------------------------|
--------------------------|--------------------------|
--6--6--6--6--6--6--6--6--|--6--6--6--6--6--6--6--6--|
--6--6--6--6--6--6--6--6--|--6--6--6--6--6--6--6--6--|
--2--2--2--2--2--2--2--2--|--4--4--4--4--4--4--4--4--|
--------------------------|--4--4--4--4--4--4--4--4--|


                                                      
--------------------------|--------------------------|
--------------------------|--------------------------|
--6--6--6--6--6--6--6--6--|--6--6--6--6--6--6--6--6--|
--6--6--6--6--6--6--6--6--|--6--6--6--6--6--6--6--6--|
--4--4--4--4--4--4--4--4--|--0--0--0--0--0--0--0--0--|
--------------------------|--------------------------|


                                                                   
--------------------------|-------------------|------------------||
--------------------------|-------------------|------------------||
--6--6--6--6--6--6--6--6--|--6----------------|------------------||
--6--6--6--6--6--6--6--6--|--6----------------|------------------||
--2--2--2--2--2--2--2--2--|--4----------------|------------------||
--------------------------|--4----------------|------------------||




Guitar 2
                                                             
E||----------12----------12----|--------12----------12------|
B||------13----------13--------|----13----------13------13--|
G||--10------------------------|----------------------------|
D||----------------------------|----------------------------|
A||----------------------------|----------------------------|
D||----------------------------|----------------------------|


                                                          
----------15----------15----|--------15----------15------|
------13----------13--------|----13----------13------13--|
--10------------------------|----------------------------|
----------------------------|----------------------------|
----------------------------|----------------------------|
----------------------------|----------------------------|


                                                          
----------12----------12----|--------12----------12------|
------13----------13--------|----13----------13------13--|
--10------------------------|----------------------------|
----------------------------|----------------------------|
----------------------------|----------------------------|
----------------------------|----------------------------|


                                              
----------15--------------|------------------|
------13------------13----|------------------|
--10----------------------|------------------|
--------------------------|------------------|
--------------------------|------------------|
--------------------------|------------------|


                                                          
----------12----------12----|--------12----------12------|
------13----------13--------|----13----------13------13--|
--10------------------------|----------------------------|
----------------------------|----------------------------|
----------------------------|----------------------------|
----------------------------|----------------------------|


                                                          
----------15----------15----|--------15----------15------|
------13----------13--------|----13----------13------13--|
--10------------------------|----------------------------|
----------------------------|----------------------------|
----------------------------|----------------------------|
----------------------------|----------------------------|


                                                          
----------12----------12----|--------12----------12------|
------13----------13--------|----13----------13------13--|
--10------------------------|----------------------------|
----------------------------|----------------------------|
----------------------------|----------------------------|
----------------------------|----------------------------|


                                                          
----------15----------15----|--------15----------15------|
------13----------13--------|----13----------13------13--|
--10------------------------|----------------------------|
----------------------------|----------------------------|
----------------------------|----------------------------|
----------------------------|----------------------------|


                                                          
----------12----------12----|--------12----------12------|
------13----------13--------|----13----------13------13--|
--10------------------------|----------------------------|
----------------------------|----------------------------|
----------------------------|----------------------------|
----------------------------|----------------------------|


                                                          
----------15----------15----|--------15----------15------|
------13----------13--------|----13----------13------13--|
--10------------------------|----------------------------|
----------------------------|----------------------------|
----------------------------|----------------------------|
----------------------------|----------------------------|


                                                          
----------12----------12----|--------12----------12------|
------13----------13--------|----13----------13------13--|
--10------------------------|----------------------------|
----------------------------|----------------------------|
----------------------------|----------------------------|
----------------------------|----------------------------|


                                                          
----------15----------15----|--------15----------15------|
------13----------13--------|----13----------13------13--|
--10------------------------|----------------------------|
----------------------------|----------------------------|
----------------------------|----------------------------|
----------------------------|----------------------------|


                                                           
--------------------|------------------|------------------|
--------------------|------------------|------------------|
--6----6------------|------------------|------------------|
--6----6------------|------------------|------------------|
--4----4------------|------------------|------------------|
--4----4------------|------------------|------------------|


                                                         
------------------|------------------|------------------|
------------------|------------------|------------------|
------------------|------------------|------------------|
------------------|------------------|------------------|
------------------|------------------|------------------|
------------------|------------------|------------------|


                                                           
------------------|------------------|--------------------|
------------------|------------------|--------------------|
------------------|------------------|--6----6------------|
------------------|------------------|--6----6------------|
------------------|------------------|--4----4------------|
------------------|------------------|--4----4------------|


                                                         
------------------|------------------|------------------|
------------------|------------------|------------------|
------------------|------------------|------------------|
------------------|------------------|------------------|
------------------|------------------|------------------|
------------------|------------------|------------------|


                                                         
------------------|------------------|------------------|
------------------|------------------|------------------|
------------------|------------------|------------------|
------------------|------------------|------------------|
------------------|------------------|------------------|
------------------|------------------|------------------|


                                                             
------------------|----------------------|------------------|
------------------|--5/-4----------------|------------------|
------------------|--------4-------------|------------------|
------------------|-----------6----------|------------------|
------------------|----------------------|------------------|
------------------|----------------------|------------------|


                                                             
------------------|-------------------|---------------------|
------------------|-------------------|----------------5----|
------------------|----------6--------|-----------4---------|
------------------|-------------------|--4------------------|
------------------|-------------------|---------------------|
------------------|-------------------|---------------------|


                                                             
--------------7------|-------------------|------------------|
--------4h-5---------|-------------------|------------------|
---------------------|-------------------|------------------|
---------------------|----9--------------|------------------|
---------------------|-------------------|------------------|
---------------------|-------------------|------------------|


                                                             
----------------------|------------------|------------------|
--5/-4----------------|------------------|------------------|
--------4-------------|------------------|------------------|
-----------6----------|------------------|------------------|
----------------------|------------------|------------------|
----------------------|------------------|------------------|


                                                                
-------------------|---------------------|--------------7------|
-------------------|----------------5----|--------4h-5---------|
----------6--------|-----------4---------|---------------------|
-------------------|--4------------------|---------------------|
-------------------|---------------------|---------------------|
-------------------|---------------------|---------------------|


                                                                    
-------------------|------------------|----------12----------12----|
-------------------|------------------|------13----------13--------|
-------------------|------------------|--10------------------------|
----9--------------|------------------|----------------------------|
-------------------|------------------|----------------------------|
-------------------|------------------|----------------------------|


                                                          
--------12----------12------|----------15----------15----|
----13----------13------13--|------13----------13--------|
----------------------------|--10------------------------|
----------------------------|----------------------------|
----------------------------|----------------------------|
----------------------------|----------------------------|


                                                          
--------15----------15------|----------12----------12----|
----13----------13------13--|------13----------13--------|
----------------------------|--10------------------------|
----------------------------|----------------------------|
----------------------------|----------------------------|
----------------------------|----------------------------|


                                                          
--------12----------12------|----------15----------15----|
----13----------13------13--|------13----------13--------|
----------------------------|--10------------------------|
----------------------------|----------------------------|
----------------------------|----------------------------|
----------------------------|----------------------------|


                                                          
--------15----------15------|----------12----------12----|
----13----------13------13--|------13----------13--------|
----------------------------|--10------------------------|
----------------------------|----------------------------|
----------------------------|----------------------------|
----------------------------|----------------------------|


                                                          
--------12----------12------|----------15----------15----|
----13----------13------13--|------13----------13--------|
----------------------------|--10------------------------|
----------------------------|----------------------------|
----------------------------|----------------------------|
----------------------------|----------------------------|


                                                          
--------15----------15------|----------12----------12----|
----13----------13------13--|------13----------13--------|
----------------------------|--10------------------------|
----------------------------|----------------------------|
----------------------------|----------------------------|
----------------------------|----------------------------|


                                                          
--------12----------12------|----------15----------15----|
----13----------13------13--|------13----------13--------|
----------------------------|--10------------------------|
----------------------------|----------------------------|
----------------------------|----------------------------|
----------------------------|----------------------------|


                                                                     
--------15----------15------|--------------------|------------------|
----13----------13------13--|--------------------|------------------|
----------------------------|--6----6------------|------------------|
----------------------------|--6----6------------|------------------|
----------------------------|--4----4------------|------------------|
----------------------------|--4----4------------|------------------|


                                                         
------------------|------------------|------------------|
------------------|------------------|------------------|
------------------|------------------|------------------|
------------------|------------------|------------------|
------------------|------------------|------------------|
------------------|------------------|------------------|


                                                         
------------------|------------------|------------------|
------------------|------------------|------------------|
------------------|------------------|------------------|
------------------|------------------|------------------|
------------------|------------------|------------------|
------------------|------------------|------------------|


                                                           
--------------------|------------------|------------------|
--------------------|------------------|------------------|
--6----6------------|------------------|------------------|
--6----6------------|------------------|------------------|
--4----4------------|------------------|------------------|
--4----4------------|------------------|------------------|


                                                         
------------------|------------------|------------------|
------------------|------------------|------------------|
------------------|------------------|------------------|
------------------|------------------|------------------|
------------------|------------------|------------------|
------------------|------------------|------------------|


                                                             
------------------|------------------|----------------------|
------------------|------------------|--5/-4----------------|
------------------|------------------|--------4-------------|
------------------|------------------|-----------6----------|
------------------|------------------|----------------------|
------------------|------------------|----------------------|


                                                          
------------------|------------------|-------------------|
------------------|------------------|-------------------|
------------------|------------------|----------6--------|
------------------|------------------|-------------------|
------------------|------------------|-------------------|
------------------|------------------|-------------------|


                                                                
---------------------|--------------7------|-------------------|
----------------5----|--------4h-5---------|-------------------|
-----------4---------|---------------------|-------------------|
--4------------------|---------------------|----9--------------|
---------------------|---------------------|-------------------|
---------------------|---------------------|-------------------|


                                                           
------------------|--------------------|------------------|
------------------|--------------------|------------------|
------------------|--6----6------------|------------------|
------------------|--6----6------------|------------------|
------------------|--4----4------------|------------------|
------------------|--4----4------------|------------------|


                                                         
------------------|------------------|------------------|
------------------|------------------|------------------|
------------------|------------------|------------------|
------------------|------------------|------------------|
------------------|------------------|------------------|
------------------|------------------|------------------|


                                                           
------------------|------------------|--------------------|
------------------|------------------|--------------------|
------------------|------------------|--------------------|
------------------|------------------|--1--1--------------|
------------------|------------------|--1--1--------------|
------------------|------------------|--1--1--------------|


                                                
------------------|----------12----------12----|
------------------|------13----------13--------|
------------------|--10------------------------|
------------------|----------------------------|
------------------|----------------------------|
------------------|----------------------------|


                                                          
--------12----------12------|----------15----------15----|
----13----------13------13--|------13----------13--------|
----------------------------|--10------------------------|
----------------------------|----------------------------|
----------------------------|----------------------------|
----------------------------|----------------------------|


                                                          
--------15----------15------|----------12----------12----|
----13----------13------13--|------13----------13--------|
----------------------------|--10------------------------|
----------------------------|----------------------------|
----------------------------|----------------------------|
----------------------------|----------------------------|


                                                          
--------12----------12------|----------15----------15----|
----13----------13------13--|------13----------13--------|
----------------------------|--10------------------------|
----------------------------|----------------------------|
----------------------------|----------------------------|
----------------------------|----------------------------|


                                                          
--------15----------15------|----------12----------12----|
----13----------13------13--|------13----------13--------|
----------------------------|--10------------------------|
----------------------------|----------------------------|
----------------------------|----------------------------|
----------------------------|----------------------------|


                                                          
--------12----------12------|----------15----------15----|
----13----------13------13--|------13----------13--------|
----------------------------|--10------------------------|
----------------------------|----------------------------|
----------------------------|----------------------------|
----------------------------|----------------------------|


                                                          
--------15----------15------|----------12----------12----|
----13----------13------13--|------13----------13--------|
----------------------------|--10------------------------|
----------------------------|----------------------------|
----------------------------|----------------------------|
----------------------------|----------------------------|


                                                          
--------12----------12------|----------15----------15----|
----13----------13------13--|------13----------13--------|
----------------------------|--10------------------------|
----------------------------|----------------------------|
----------------------------|----------------------------|
----------------------------|----------------------------|


                                                                   
--------15----------15------|------------------|------------------|
----13----------13------13--|------------------|------------------|
----------------------------|------------------|------------------|
----------------------------|------------------|------------------|
----------------------------|------------------|------------------|
----------------------------|------------------|------------------|


                                                         
------------------|------------------|------------------|
------------------|------------------|------------------|
------------------|------------------|------------------|
------------------|------------------|------------------|
------------------|------------------|------------------|
------------------|------------------|------------------|


                                                         
------------------|------------------|------------------|
------------------|------------------|------------------|
------------------|------------------|------------------|
------------------|------------------|------------------|
------------------|------------------|------------------|
------------------|------------------|------------------|


                                                       
--------------------------|---------------------------|
--------------------------|---------------------------|
-----------------8--8--8--|--8--9--9--9--9--9--8h9h8--|
--9--9--9--9--9-----------|---------------------------|
--------------------------|---------------------------|
--------------------------|---------------------------|


                                                      
--------------------------|-----------------7--------|
--------------------------|--------------------------|
-----------------8--8--8--|--8--9--9--9--9-----8--9--|
--9--9--9--9--9-----------|--------------------------|
--------------------------|--------------------------|
--------------------------|--------------------------|


                                                       
--------------------------|---------------------------|
--------------------------|---------------------------|
-----------------8--8--8--|--8--9--9--9--9--9--8h9h8--|
--9--9--9--9--9-----------|---------------------------|
--------------------------|---------------------------|
--------------------------|---------------------------|


                                                      
--------------------------|-----------------7-----7--|
--------------------------|--------------------------|
-----------------8--8--8--|--8--9--9--9--9-----8-----|
--9--9--9--9--9-----------|--------------------------|
--------------------------|--------------------------|
--------------------------|--------------------------|


                                                       
--------------------------|---------------------------|
--------------------------|---------------------------|
-----------------8--8--8--|--8--9--9--9--9--9--8h9h8--|
--9--9--9--9--9-----------|---------------------------|
--------------------------|---------------------------|
--------------------------|---------------------------|


                                                      
--------------------------|-----------------7--------|
--------------------------|--------------------------|
-----------------8--8--8--|--8--9--9--9--9-----8--9--|
--9--9--9--9--9-----------|--------------------------|
--------------------------|--------------------------|
--------------------------|--------------------------|


                                                       
--------------------------|---------------------------|
--------------------------|---------------------------|
-----------------8--8--8--|--8--9--9--9--9--9--8h9h8--|
--9--9--9--9--9-----------|---------------------------|
--------------------------|---------------------------|
--------------------------|---------------------------|


                                                      
--------------------------|-----------------7-----7--|
--------------------------|--------------------------|
-----------------8--8--8--|--8--9--9--9--9-----8-----|
--9--9--9--9--9-----------|--------------------------|
--------------------------|--------------------------|
--------------------------|--------------------------|


                                                       
--------------------------|---------------------------|
--------------------------|---------------------------|
-----------------8--8--8--|--8--9--9--9--9--9--8h9h8--|
--9--9--9--9--9-----------|---------------------------|
--------------------------|---------------------------|
--------------------------|---------------------------|


                                                      
--------------------------|-----------------7--------|
--------------------------|--------------------------|
-----------------8--8--8--|--8--9--9--9--9-----8--9--|
--9--9--9--9--9-----------|--------------------------|
--------------------------|--------------------------|
--------------------------|--------------------------|


                                                       
--------------------------|---------------------------|
--------------------------|---------------------------|
-----------------8--8--8--|--8--9--9--9--9--9--8h9h8--|
--9--9--9--9--9-----------|---------------------------|
--------------------------|---------------------------|
--------------------------|---------------------------|


                                                     
--------7--------7--------|--7--------7--------7----|
--------------------------|-------------------------|
--8h-9-----8h-9-----8h-9--|-----8h-9-----8h-9-------|
--------------------------|-------------------------|
--------------------------|-------------------------|
--------------------------|-------------------------|


                                                      
--------------------------|--------------------------|
--------------------------|--------------------------|
--6--6--6--6--6--6--6--6--|--6--6--6--6--6--6--6--6--|
--6--6--6--6--6--6--6--6--|--6--6--6--6--6--6--6--6--|
--4--4--4--4--4--4--4--4--|--0--0--0--0--0--0--0--0--|
--------------------------|--------------------------|


                                                      
--------------------------|--------------------------|
--------------------------|--------------------------|
--6--6--6--6--6--6--6--6--|--6--6--6--6--6--6--6--6--|
--6--6--6--6--6--6--6--6--|--6--6--6--6--6--6--6--6--|
--2--2--2--2--2--2--2--2--|--4--4--4--4--4--4--4--4--|
--------------------------|--4--4--4--4--4--4--4--4--|


                                                      
--------------------------|--------------------------|
--------------------------|--------------------------|
--6--6--6--6--6--6--6--6--|--6--6--6--6--6--6--6--6--|
--6--6--6--6--6--6--6--6--|--6--6--6--6--6--6--6--6--|
--4--4--4--4--4--4--4--4--|--0--0--0--0--0--0--0--0--|
--------------------------|--------------------------|


                                                      
--------------------------|--------------------------|
--------------------------|--------------------------|
--6--6--6--6--6--6--6--6--|--6--6--6--6--6--6--6--6--|
--6--6--6--6--6--6--6--6--|--6--6--6--6--6--6--6--6--|
--2--2--2--2--2--2--2--2--|--4--4--4--4--4--4--4--4--|
--------------------------|--4--4--4--4--4--4--4--4--|


                                                      
--------------------------|--------------------------|
--------------------------|--------------------------|
--6--6--6--6--6--6--6--6--|--6--6--6--6--6--6--6--6--|
--6--6--6--6--6--6--6--6--|--6--6--6--6--6--6--6--6--|
--4--4--4--4--4--4--4--4--|--0--0--0--0--0--0--0--0--|
--------------------------|--------------------------|


                                                      
--------------------------|--------------------------|
--------------------------|--------------------------|
--6--6--6--6--6--6--6--6--|--6--6--6--6--6--6--6--6--|
--6--6--6--6--6--6--6--6--|--6--6--6--6--6--6--6--6--|
--2--2--2--2--2--2--2--2--|--4--4--4--4--4--4--4--4--|
--------------------------|--4--4--4--4--4--4--4--4--|


                                                      
--------------------------|--------------------------|
--------------------------|--------------------------|
--6--6--6--6--6--6--6--6--|--6--6--6--6--6--6--6--6--|
--6--6--6--6--6--6--6--6--|--6--6--6--6--6--6--6--6--|
--4--4--4--4--4--4--4--4--|--0--0--0--0--0--0--0--0--|
--------------------------|--------------------------|


                                                            
--------------------------|--------------------------------|
--------------------------|--------------------------------|
--6--6--6--6--6--6--6--6--|--6----6----6----6----6----6----|
--6--6--6--6--6--6--6--6--|--6----6----6----6----6----6----|
--2--2--2--2--2--2--2--2--|--4----4----4----4----4----4----|
--------------------------|--4----4----4----4----4----4----|


                                                  
--12h-11------------------|----------------------|
----------12--------------|------14--------------|
--------------13----------|----------------11----|
--------------------------|----------------------|
--------------------------|----------------------|
--------------------------|----------------------|


                                                            
--------------19------19----|------12----11h12h11----------|
------16--17------17--------|---------------------12-------|
----------------------------|-------------------------11---|
----------------------------|------------------------------|
----------------------------|------------------------------|
----------------------------|------------------------------|


                                                    
--12h-11--------------------|------14--------12----|
----------12----------14----|----------------------|
--------------13------------|----------------------|
----------------------------|----------------------|
----------------------------|----------------------|
----------------------------|----------------------|


                                                          
------14----11h-12h-11----|------12----11h12h11----------|
--------------------------|---------------------12-------|
--------------------------|-------------------------11---|
--------------------------|------------------------------|
--------------------------|------------------------------|
--------------------------|------------------------------|


                                                   
--12-12-12-12-12-12-12-12-12-12-12-12-12-12-12-12-|
--12-12-12-12-12-12-12-12-12-12-12-12-12-12-12-12-|
--9--9--9--9--9--9--9--9--9--9--9--9--9--9--9--9--|
--------------------------------------------------|
--------------------------------------------------|
--------------------------------------------------|


                                                   
--12-12-12-12-12-12-12-12-12-12-12-12-12-12-12-12-|
--12-12-12-12-12-12-12-12-12-12-12-12-12-12-12-12-|
--9--9--9--9--9--9--9--9--9--9--9--9--9--9--9--9--|
--------------------------------------------------|
--------------------------------------------------|
--------------------------------------------------|


                                                   
--12-12-12-12-12-12-12-12-12-12-12-12-12-12-12-12-|
--12-12-12-12-12-12-12-12-12-12-12-12-12-12-12-12-|
--9--9--9--9--9--9--9--9--9--9--9--9--9--9--9--9--|
--------------------------------------------------|
--------------------------------------------------|
--------------------------------------------------|


                                                   
--12-12-12-12-12-12-12-12-12-12-12-12-12-12-12-12-|
--12-12-12-12-12-12-12-12-12-12-12-12-12-12-12-12-|
--9--9--9--9--9--9--9--9--9--9--9--9--9--9--9--9--


Текст, аккорды и табулатура для песни "Piano", исполняет "Glass Jaw".
Используемые в песне аккорды можно найти в разделе Как брать аккорды. Аккорды для шестиструнной гитары. Другие песни можно найти на нашем сайте, воспользовавшись алфавитным указателем вверху страницы.


Слушать онлайн Piano


GlassjawPiano на Яндекс.Музыке


 
Ошибка в тексте? Выделите ошибку и нажмите Ctrl+Enter