Mu Empire
Tabbed By: [email protected]

__=palm mute
h=hammer-on


intro-guitar1
---|---------------|---------------------------------------|
---|---------------|---------------------------------------|
---|---------------|---------------------------------------|
-0-|---------------|-x-x-2-2-x-x-2-2-x-x-2-3-3-3-3-3-3-3-3-|
-0-|---------------|-x-x-2-2-x-x-2-2-x-x-2-3-3-3-3-3-3-3-3-|
-0-|-(pick scrape)-|-x-x-2-2-x-x-2-2-x-x-2-3-3-3-3-3-3-3-3-|
                    (strum really fast)    _______________

---------------------------------------|
---------------------------------------|
---------------------------------------|
-x-x-2-2-x-x-2-2-x-x-2-3-3-3-3-3-3-3-3-|
-x-x-2-2-x-x-2-2-x-x-2-3-3-3-3-3-3-3-3-|
-x-x-2-2-x-x-2-2-x-x-2-3-3-3-3-3-3-3-3-|
(strum really fast)    _______________

---------------------------------------|
---------------------------------------|
---------------------------------------|
-x-x-2-2-x-x-2-2-x-x-2-3-3-3-3-3-3-3-3-|
-x-x-2-2-x-x-2-2-x-x-2-3-3-3-3-3-3-3-3-|
-x-x-2-2-x-x-2-2-x-x-2-3-3-3-3-3-3-3-3-|
(strum really fast)    _______________

-------------------0-0-0-0-|
-------------------0-0-0-0-|
-------------------0-0-0-0-|
-x-x-2-2-x-x-2-2-3-3-3-3-3-|
-x-x-2-2-x-x-2-2-3-3-3-3-3-|
-x-x-2-2-x-x-2-2-3-3-3-3-3-|

intro-guitar2
---------------|---------------------------------------|
---------------|---------------------------------------|
---------------|---------------------------------------|
---------------|-x-x-2-2-x-x-2-2-x-x-2-3-3-3-3-3-3-3-3-|
---------------|-x-x-2-2-x-x-2-2-x-x-2-3-3-3-3-3-3-3-3-|
-(pick scrape)-|-x-x-2-2-x-x-2-2-x-x-2-3-3-3-3-3-3-3-3-|
                (strum really fast)    _______________

---------------------------------------|
---------------------------------------|
---------------------------------------|
-x-x-2-2-x-x-2-2-x-x-2-3-3-3-3-3-3-3-3-|
-x-x-2-2-x-x-2-2-x-x-2-3-3-3-3-3-3-3-3-|
-x-x-2-2-x-x-2-2-x-x-2-3-3-3-3-3-3-3-3-|
(strum really fast)    _______________

---------------------------------------|
---------------------------------------|
---------------------------------------|
-x-x-2-2-x-x-2-2-x-x-2-3-3-3-3-3-3-3-3-|
-x-x-2-2-x-x-2-2-x-x-2-3-3-3-3-3-3-3-3-|
-x-x-2-2-x-x-2-2-x-x-2-3-3-3-3-3-3-3-3-|
(strum really fast)    _______________

---------------------------0-----|
-------------------------0---0---|
-----------------------0-------0-|
-x-x-2-2-x-x-2-2-x-x-2-----------|
-x-x-2-2-x-x-2-2-x-x-2-----------|
-x-x-2-2-x-x-2-2-x-x-2-----------|
(strum really fast)

_______________________________________________________________

intro-guitar1
---------------------------------------|
---------------------------------------|
---------------------------------------|
-x-x-2-2-x-x-2-2-x-x-2-3-3-3-3-3-3-3-3-|
-x-x-2-2-x-x-2-2-x-x-2-3-3-3-3-3-3-3-3-|
-x-x-2-2-x-x-2-2-x-x-2-3-3-3-3-3-3-3-3-|
(strum really fast)    _______________

---------------------------------------|
---------------------------------------|
---------------------------------------|
-x-x-2-2-x-x-2-2-x-x-2-3-3-3-3-3-3-3-3-|
-x-x-2-2-x-x-2-2-x-x-2-3-3-3-3-3-3-3-3-|
-x-x-2-2-x-x-2-2-x-x-2-3-3-3-3-3-3-3-3-|
(strum really fast)    _______________

---------------------------------------|
---------------------------------------|
---------------------------------------|
-x-x-2-2-x-x-2-2-x-x-2-3-3-3-3-3-3-3-3-|
-x-x-2-2-x-x-2-2-x-x-2-3-3-3-3-3-3-3-3-|
-x-x-2-2-x-x-2-2-x-x-2-3-3-3-3-3-3-3-3-|
(strum really fast)    _______________

-------------------0-0-0-0-|
-------------------0-0-0-0-|
-------------------0-0-0-0-|
-x-x-2-2-x-x-2-2-3-3-3-3-3-|
-x-x-2-2-x-x-2-2-3-3-3-3-3-|
-x-x-2-2-x-x-2-2-3-3-3-3-3-|

intro-guitar2
---------------------------------------|
---------------------------------------|
---------------------------------------|
-x-x-2-2-x-x-2-2-x-x-2-3-3-3-3-3-3-3-3-|
-x-x-2-2-x-x-2-2-x-x-2-3-3-3-3-3-3-3-3-|
-x-x-2-2-x-x-2-2-x-x-2-3-3-3-3-3-3-3-3-|
(strum really fast)    _______________

---------------------------------------|
---------------------------------------|
---------------------------------------|
-x-x-2-2-x-x-2-2-x-x-2-3-3-3-3-3-3-3-3-|
-x-x-2-2-x-x-2-2-x-x-2-3-3-3-3-3-3-3-3-|
-x-x-2-2-x-x-2-2-x-x-2-3-3-3-3-3-3-3-3-|
(strum really fast)    _______________

---------------------------------------|
---------------------------------------|
---------------------------------------|
-x-x-2-2-x-x-2-2-x-x-2-3-3-3-3-3-3-3-3-|
-x-x-2-2-x-x-2-2-x-x-2-3-3-3-3-3-3-3-3-|
-x-x-2-2-x-x-2-2-x-x-2-3-3-3-3-3-3-3-3-|
(strum really fast)    _______________

---------------------------0-----|
-------------------------0---0---|
-----------------------0-------0-|
-x-x-2-2-x-x-2-2-x-x-2-----------|
-x-x-2-2-x-x-2-2-x-x-2-----------|
-x-x-2-2-x-x-2-2-x-x-2-----------|
(strum really fast)

_______________________________________________________________

verse-guitar1
-----------0---0-----0-----------0---0-|
-----0---0-0-0-0---0-0-----0---0-0-0-0-|
-0-0-0-0-0-0-0-0-0-0-0-0-0-0-0-0-0-0-0-|
-5-5-5-5-5-5-5-5-5-5-5-5-5-5-5-5-5-5-5-|
-5-5-5-5-5-5-5-5-5-5-5-5-5-5-5-5-5-5-5-|
-5-5-5-5-5-5-5-5-5-5-5-5-5-5-5-5-5-5-5-|

verse-guitar2
-------------------------------------15-15-15-15-------------------------------------19-19-19-19-|
-15-15-15-15-15-15-15-15-15-15-15-15-------------15-15-15-15-15-15-15-15-15-15-15-15-------------|
-------------------------------------------------------------------------------------------------|
-------------------------------------------------------------------------------------------------|
-------------------------------------------------------------------------------------------------|
-------------------------------------------------------------------------------------------------|

_______________________________________________________________

chorus-guitar1
---------------------------------------|
---------------------------------------|
---------------------------------------|
-x-x-2-2-x-x-2-2-x-x-2-3-3-3-3-3-3-3-3-|
-x-x-2-2-x-x-2-2-x-x-2-3-3-3-3-3-3-3-3-|
-x-x-2-2-x-x-2-2-x-x-2-3-3-3-3-3-3-3-3-|
(strum really fast)    _______________

---------------------------------------|
---------------------------------------|
---------------------------------------|
-x-x-2-2-x-x-2-2-x-x-2-3-3-3-3-3-3-3-3-|
-x-x-2-2-x-x-2-2-x-x-2-3-3-3-3-3-3-3-3-|
-x-x-2-2-x-x-2-2-x-x-2-3-3-3-3-3-3-3-3-|
(strum really fast)    _______________

---------------------------------------|
---------------------------------------|
---------------------------------------|
-x-x-2-2-x-x-2-2-x-x-2-3-3-3-3-3-3-3-3-|
-x-x-2-2-x-x-2-2-x-x-2-3-3-3-3-3-3-3-3-|
-x-x-2-2-x-x-2-2-x-x-2-3-3-3-3-3-3-3-3-|
(strum really fast)    _______________

-------------------0-0-0-0-|
-------------------0-0-0-0-|
-------------------0-0-0-0-|
-x-x-2-2-x-x-2-2-3-3-3-3-3-|
-x-x-2-2-x-x-2-2-3-3-3-3-3-|
-x-x-2-2-x-x-2-2-3-3-3-3-3-|

chorus-guitar2
---------------------------------------|
---------------------------------------|
---------------------------------------|
-x-x-2-2-x-x-2-2-x-x-2-3-3-3-3-3-3-3-3-|
-x-x-2-2-x-x-2-2-x-x-2-3-3-3-3-3-3-3-3-|
-x-x-2-2-x-x-2-2-x-x-2-3-3-3-3-3-3-3-3-|
(strum really fast)    _______________

---------------------------------------|
---------------------------------------|
---------------------------------------|
-x-x-2-2-x-x-2-2-x-x-2-3-3-3-3-3-3-3-3-|
-x-x-2-2-x-x-2-2-x-x-2-3-3-3-3-3-3-3-3-|
-x-x-2-2-x-x-2-2-x-x-2-3-3-3-3-3-3-3-3-|
(strum really fast)    _______________

---------------------------------------|
---------------------------------------|
---------------------------------------|
-x-x-2-2-x-x-2-2-x-x-2-3-3-3-3-3-3-3-3-|
-x-x-2-2-x-x-2-2-x-x-2-3-3-3-3-3-3-3-3-|
-x-x-2-2-x-x-2-2-x-x-2-3-3-3-3-3-3-3-3-|
(strum really fast)    _______________

---------------------------0-----|
-------------------------0---0---|
-----------------------0-------0-|
-x-x-2-2-x-x-2-2-x-x-2-----------|
-x-x-2-2-x-x-2-2-x-x-2-----------|
-x-x-2-2-x-x-2-2-x-x-2-----------|
(strum really fast)

_______________________________________________________________

2nd chorus-guitar1
-------------5-5-5-5----------------------------------------------|
-7---------7---------7--------------------------------------------|
---7-----7-------------7------------------------------------------|
-----5-4-----------------5-4-7h9-7-9slide11-11-11-11slide12-12-12-|
------------------------------------------------------------------|
------------------------------------------------------------------|

-------------5-5-5-5----------------------------------------------19----|
-7---------7---------7-----------------------------------------------20-|
---7-----7-------------7------------------------------------------------|
-----5-4-----------------5-4-7h9-7-9slide11-11-11-11slide12-12-12-------|
------------------------------------------------------------------------|
------------------------------------------------------------------------|

2nd chorus-guitar2
-----------------------------------------------------------------|
---------0-0-0-0---------0-0-0-0---------0-0-0-0---------0-0-0-0-|
---------0-0-0-0---------0-0-0-0---------0-0-0-0---------0-0-0-0-|
-4-4-4-4-4-4-4-4-4-4-4-4-4-4-4-4-4-4-4-4-4-4-4-4-4-4-4-4-4-4-4-4-|
-2-2-2-2-2-2-2-2-2-2-2-2-2-2-2-2-2-2-2-2-2-2-2-2-2-2-2-2-2-2-2-2-|
-----------------------------------------------------------------|
4x

_______________________________________________________________

verse-guitar1
-----------0---0-----0-----------0---0-|
-----0---0-0-0-0---0-0-----0---0-0-0-0-|
-0-0-0-0-0-0-0-0-0-0-0-0-0-0-0-0-0-0-0-|
-5-5-5-5-5-5-5-5-5-5-5-5-5-5-5-5-5-5-5-|
-5-5-5-5-5-5-5-5-5-5-5-5-5-5-5-5-5-5-5-|
-5-5-5-5-5-5-5-5-5-5-5-5-5-5-5-5-5-5-5-|

verse-guitar2
-------------------------------------15-15-15-15-------------------------------------19-19-19-19-|
-15-15-15-15-15-15-15-15-15-15-15-15-------------15-15-15-15-15-15-15-15-15-15-15-15-------------|
-------------------------------------------------------------------------------------------------|
-------------------------------------------------------------------------------------------------|
-------------------------------------------------------------------------------------------------|
-------------------------------------------------------------------------------------------------|

_______________________________________________________________

chorus-guitar1
---------------------------------------|
---------------------------------------|
---------------------------------------|
-x-x-2-2-x-x-2-2-x-x-2-3-3-3-3-3-3-3-3-|
-x-x-2-2-x-x-2-2-x-x-2-3-3-3-3-3-3-3-3-|
-x-x-2-2-x-x-2-2-x-x-2-3-3-3-3-3-3-3-3-|
(strum really fast)    _______________

---------------------------------------|
---------------------------------------|
---------------------------------------|
-x-x-2-2-x-x-2-2-x-x-2-3-3-3-3-3-3-3-3-|
-x-x-2-2-x-x-2-2-x-x-2-3-3-3-3-3-3-3-3-|
-x-x-2-2-x-x-2-2-x-x-2-3-3-3-3-3-3-3-3-|
(strum really fast)    _______________

---------------------------------------|
---------------------------------------|
---------------------------------------|
-x-x-2-2-x-x-2-2-x-x-2-3-3-3-3-3-3-3-3-|
-x-x-2-2-x-x-2-2-x-x-2-3-3-3-3-3-3-3-3-|
-x-x-2-2-x-x-2-2-x-x-2-3-3-3-3-3-3-3-3-|
(strum really fast)    _______________

-------------------0-0-0-0-|
-------------------0-0-0-0-|
-------------------0-0-0-0-|
-x-x-2-2-x-x-2-2-3-3-3-3-3-|
-x-x-2-2-x-x-2-2-3-3-3-3-3-|
-x-x-2-2-x-x-2-2-3-3-3-3-3-|

chorus-guitar2
---------------------------------------|
---------------------------------------|
---------------------------------------|
-x-x-2-2-x-x-2-2-x-x-2-3-3-3-3-3-3-3-3-|
-x-x-2-2-x-x-2-2-x-x-2-3-3-3-3-3-3-3-3-|
-x-x-2-2-x-x-2-2-x-x-2-3-3-3-3-3-3-3-3-|
(strum really fast)    _______________

---------------------------------------|
---------------------------------------|
---------------------------------------|
-x-x-2-2-x-x-2-2-x-x-2-3-3-3-3-3-3-3-3-|
-x-x-2-2-x-x-2-2-x-x-2-3-3-3-3-3-3-3-3-|
-x-x-2-2-x-x-2-2-x-x-2-3-3-3-3-3-3-3-3-|
(strum really fast)    _______________

---------------------------------------|
---------------------------------------|
---------------------------------------|
-x-x-2-2-x-x-2-2-x-x-2-3-3-3-3-3-3-3-3-|
-x-x-2-2-x-x-2-2-x-x-2-3-3-3-3-3-3-3-3-|
-x-x-2-2-x-x-2-2-x-x-2-3-3-3-3-3-3-3-3-|
(strum really fast)    _______________

---------------------------0-----|
-------------------------0---0---|
-----------------------0-------0-|
-x-x-2-2-x-x-2-2-x-x-2-----------|
-x-x-2-2-x-x-2-2-x-x-2-----------|
-x-x-2-2-x-x-2-2-x-x-2-----------|
(strum really fast)

_______________________________________________________________

2nd chorus-guitar1
-------------5-5-5-5----------------------------------------------|
-7---------7---------7--------------------------------------------|
---7-----7-------------7------------------------------------------|
-----5-4-----------------5-4-7h9-7-9slide11-11-11-11slide12-12-12-|
------------------------------------------------------------------|
------------------------------------------------------------------|

-------------5-5-5-5----------------------------------------------|
-7---------7---------7--------------------------------------------|
---7-----7-------------7------------------------------------------|
-----5-4-----------------5-4-7h9-7-9slide11-11-11-11slide12-12-12-|
------------------------------------------------------------------|
------------------------------------------------------------------|

2nd chorus-guitar2
-----------------------------------------------------------------|
---------0-0-0-0---------0-0-0-0---------0-0-0-0---------0-0-0-0-|
---------0-0-0-0---------0-0-0-0---------0-0-0-0---------0-0-0-0-|
-4-4-4-4-4-4-4-4-4-4-4-4-4-4-4-4-4-4-4-4-4-4-4-4-4-4-4-4-4-4-4-4-|
-2-2-2-2-2-2-2-2-2-2-2-2-2-2-2-2-2-2-2-2-2-2-2-2-2-2-2-2-2-2-2-2-|
-----------------------------------------------------------------|
4x

_______________________________________________________________

2nd chorus-guitar1
-17-------14-------17-------14-------------------|
----17-------17-------17-------17----15h17-15----|
-------16-------16-------16-------16----------16-|
-------------------------------------------------|
-------------------------------------------------|
-------------------------------------------------|

-17-------14-------17-------14-------------------|
----17-------17-------17-------17----15h17-15----|
-------16-------16-------16-------16----------16-|
-------------------------------------------------|
-------------------------------------------------|
-------------------------------------------------|

-------------------------------------10-10-10-10-------------------------------------------------|
-12-12-12-12-12-12-12-12-12-12-12-12-------------10-10-10-10-10-10-10-10-10-10-10-10-10-10-10-10-|
-------------------------------------------------------------------------------------------------|
-------------------------------------------------------------------------------------------------|
-------------------------------------------------------------------------------------------------|
-------------------------------------------------------------------------------------------------|

2nd chorus-guitar2
---------------------------------------------------------------------------------------------------------|
---------0-0-0-0---------0-0-0-0-------------------------------------------------------------------------|
---------0-0-0-0---------0-0-0-0-7-7-7-7-7-7-7-7slide9-9-9-9-9-9-9-9-7-7-7-7-7-7-7-7slide9-9-9-9-9-9-9-9-|
-4-4-4-4-4-4-4-4-4-4-4-4-4-4-4-4-x-x-x-x-x-x-x-x-----x-x-x-x-x-x-x-x-x-x-x-x-x-x-x-x-----x-x-x-x-x-x-x-x-|
-2-2-2-2-2-2-2-2-2-2-2-2-2-2-2-2-5-5-5-5-5-5-5-5slide7-7-7-7-7-7-7-7-5-5-5-5-5-5-5-5slide7-7-7-7-7-7-7-7-|
---------------------------------------------------------------------------------------------------------|

-----------------------------|
-----------------------------|
-----------------------------|
-2-2-2-2-2-2-2-2-2-2-2-2-2-2-|
-0-0-0-0-0-0-0-0-0-0-0-0-0-0-|
-----------------------------|

_______________________________________________________________

2nd chorus-guitar1
-17-------14-------17-------14-------------------|
----17-------17-------17-------17----15h17-15----|
-------16-------16-------16-------16----------16-|
-------------------------------------------------|
-------------------------------------------------|
-------------------------------------------------|

-17-------14-------17-------14-------------------|
----17-------17-------17-------17----15h17-15----|
-------16-------16-------16-------16----------16-|
-------------------------------------------------|
-------------------------------------------------|
-------------------------------------------------|

-------------------------------------10-10-10-10-------------------------------------------------|
-12-12-12-12-12-12-12-12-12-12-12-12-------------10-10-10-10-10-10-10-10-10-10-10-10-10-10-10-10-|
-------------------------------------------------------------------------------------------------|
-------------------------------------------------------------------------------------------------|
-------------------------------------------------------------------------------------------------|
-------------------------------------------------------------------------------------------------|

2nd chorus-guitar2
---------------------------------------------------------------------------------------------------------|
---------0-0-0-0---------0-0-0-0-------------------------------------------------------------------------|
---------0-0-0-0---------0-0-0-0-7-7-7-7-7-7-7-7slide9-9-9-9-9-9-9-9-7-7-7-7-7-7-7-7slide9-9-9-9-9-9-9-9-|
-4-4-4-4-4-4-4-4-4-4-4-4-4-4-4-4-x-x-x-x-x-x-x-x-----x-x-x-x-x-x-x-x-x-x-x-x-x-x-x-x-----x-x-x-x-x-x-x-x-|
-2-2-2-2-2-2-2-2-2-2-2-2-2-2-2-2-5-5-5-5-5-5-5-5slide7-7-7-7-7-7-7-7-5-5-5-5-5-5-5-5slide7-7-7-7-7-7-7-7-|
---------------------------------------------------------------------------------------------------------|

-----------------------------|
-----------------------------|
-----------------------------|
-2-2-2-2-2-2-2-2-2-2-2-2-2-2-|
-0-0-0-0-0-0-0-0-0-0-0-0-0-0-|
-----------------------------|


_______________________________________________________________

2nd chorus-guitar1
---------------------------------------------------------------------------|
-8-8-8-8-8-8-8-7-7-7-7-7-7---------8-8-7-7-----8-8-7-7-----8-8-7-7-----7-7-|
---------------------------7-7-7-7---------7-7---------7-7---------7-7-----|
---------------------------------------------------------------------------|
---------------------------------------------------------------------------|
---------------------------------------------------------------------------|

-------------------------------------------------|
-8-8-8-8-8-8-8-8-8-8-8-8-8-8-8-8-8-8-8-8-8-8-8-8-|
-------------------------------------------------|
-------------------------------------------------|
-------------------------------------------------|
-------------------------------------------------|

2nd chorus-guitar2
---------------------------------------------------------------------------------------------------------|
---------0-0-0-0---------0-0-0-0-------------------------------------------------------------------------|
---------0-0-0-0---------0-0-0-0-7-7-7-7-7-7-7-7slide9-9-9-9-9-9-9-9-7-7-7-7-7-7-7-7slide9-9-9-9-9-9-9-9-|
-4-4-4-4-4-4-4-4-4-4-4-4-4-4-4-4-x-x-x-x-x-x-x-x-----x-x-x-x-x-x-x-x-x-x-x-x-x-x-x-x-----x-x-x-x-x-x-x-x-|
-2-2-2-2-2-2-2-2-2-2-2-2-2-2-2-2-5-5-5-5-5-5-5-5slide7-7-7-7-7-7-7-7-5-5-5-5-5-5-5-5slide7-7-7-7-7-7-7-7-|
---------------------------------------------------------------------------------------------------------|

-------------------------------------------------|
-------------------------------------------------|
-7-7-7-7-7-7-7-7-7-7-7-7-7-7-7-7-7-7-7-7-7-7-7-7-|
-x-x-x-x-x-x-x-x-x-x-x-x-x-x-x-x-x-x-x-x-x-x-x-x-|
-5-5-5-5-5-5-5-5-5-5-5-5-5-5-5-5-5-5-5-5-5-5-5-5-|
-------------------------------------------------|

_______________________________________________________________

fill in-guitar1
-------------------|
-------------------|
-------------------|
-5-5-5-x-x-x-x-x-x-|
-5-5-5-x-x-x-x-x-x-|
-5-5-5-x-x-x-x-x-x-|

-----------0-----0-|
-----------0-----0-|
-----------0-----0-|
-5-5-5-x-x---x-x---|
-5-5-5-x-x---x-x---|
-5-5-5-x-x---x-x---|

_______________________________________________________________

2nd chorus-guitar1
-------------5-5-5-5----------------------------------------------|
-7---------7---------7--------------------------------------------|
---7-----7-------------7------------------------------------------|
-----5-4-----------------5-4-7h9-7-9slide11-11-11-11slide12-12-12-|
------------------------------------------------------------------|
------------------------------------------------------------------|

2nd chorus-guitar2
-----------------------------------------------------------------|
---------0-0-0-0---------0-0-0-0---------0-0-0-0---------0-0-0-0-|
---------0-0-0-0---------0-0-0-0---------0-0-0-0---------0-0-0-0-|
-4-4-4-4-4-4-4-4-4-4-4-4-4-4-4-4-4-4-4-4-4-4-4-4-4-4-4-4-4-4-4-4-|
-2-2-2-2-2-2-2-2-2-2-2-2-2-2-2-2-2-2-2-2-2-2-2-2-2-2-2-2-2-2-2-2-|
-----------------------------------------------------------------|
4x

---------------------------------------------|
---------------------------------------------|
-9-9-9-9-9-9-9-9slide11-11-11-11-11-11-11-11-|
-x-x-x-x-x-x-x-x-----x--x--x--x--x--x--x--x--|
-7-7-7-7-7-7-7-7slide9--9--9--9--9--9--9--9--|
---------------------------------------------|

2nd chorus-guitar1
-------------5-5-5-5----------------------------------------------|
-7---------7---------7--------------------------------------------|
---7-----7-------------7------------------------------------------|
-----5-4-----------------5-4-7h9-7-9slide11-11-11-11slide12-12-12-|
------------------------------------------------------------------|
------------------------------------------------------------------|

2nd chorus-guitar2
-----------------------------------------------------------------|
---------0-0-0-0---------0-0-0-0---------0-0-0-0---------0-0-0-0-|
---------0-0-0-0---------0-0-0-0---------0-0-0-0---------0-0-0-0-|
-4-4-4-4-4-4-4-4-4-4-4-4-4-4-4-4-4-4-4-4-4-4-4-4-4-4-4-4-4-4-4-4-|
-2-2-2-2-2-2-2-2-2-2-2-2-2-2-2-2-2-2-2-2-2-2-2-2-2-2-2-2-2-2-2-2-|
-----------------------------------------------------------------|
4x

---------------------------------------------|
---------------------------------------------|
-9-9-9-9-9-9-9-9slide11-11-11-11-11-11-11-11-|
-x-x-x-x-x-x-x-x-----x--x--x--x--x--x--x--x--|
-7-7-7-7-7-7-7-7slide9--9--9--9--9--9--9--9--|
---------------------------------------------|

_______________________________________________________________

chorus-guitar1
---------------------------------------|
---------------------------------------|
---------------------------------------|
-x-x-2-2-x-x-2-2-x-x-2-3-3-3-3-3-3-3-3-|
-x-x-2-2-x-x-2-2-x-x-2-3-3-3-3-3-3-3-3-|
-x-x-2-2-x-x-2-2-x-x-2-3-3-3-3-3-3-3-3-|
(strum really fast)    _______________

---------------------------------------|
---------------------------------------|
---------------------------------------|
-x-x-2-2-x-x-2-2-x-x-2-3-3-3-3-3-3-3-3-|
-x-x-2-2-x-x-2-2-x-x-2-3-3-3-3-3-3-3-3-|
-x-x-2-2-x-x-2-2-x-x-2-3-3-3-3-3-3-3-3-|
(strum really fast)    _______________

---------------------------------------|
---------------------------------------|
---------------------------------------|
-x-x-2-2-x-x-2-2-x-x-2-3-3-3-3-3-3-3-3-|
-x-x-2-2-x-x-2-2-x-x-2-3-3-3-3-3-3-3-3-|
-x-x-2-2-x-x-2-2-x-x-2-3-3-3-3-3-3-3-3-|
(strum really fast)    _______________

-------------------0-0-0-0-|
-------------------0-0-0-0-|
-------------------0-0-0-0-|
-x-x-2-2-x-x-2-2-3-3-3-3-3-|
-x-x-2-2-x-x-2-2-3-3-3-3-3-|
-x-x-2-2-x-x-2-2-3-3-3-3-3-|

chorus-guitar2
---------------------------------------|
---------------------------------------|
---------------------------------------|
-x-x-2-2-x-x-2-2-x-x-2-3-3-3-3-3-3-3-3-|
-x-x-2-2-x-x-2-2-x-x-2-3-3-3-3-3-3-3-3-|
-x-x-2-2-x-x-2-2-x-x-2-3-3-3-3-3-3-3-3-|
(strum really fast)    _______________

---------------------------------------|
---------------------------------------|
---------------------------------------|
-x-x-2-2-x-x-2-2-x-x-2-3-3-3-3-3-3-3-3-|
-x-x-2-2-x-x-2-2-x-x-2-3-3-3-3-3-3-3-3-|
-x-x-2-2-x-x-2-2-x-x-2-3-3-3-3-3-3-3-3-|
(strum really fast)    _______________

---------------------------------------|
---------------------------------------|
---------------------------------------|
-x-x-2-2-x-x-2-2-x-x-2-3-3-3-3-3-3-3-3-|
-x-x-2-2-x-x-2-2-x-x-2-3-3-3-3-3-3-3-3-|
-x-x-2-2-x-x-2-2-x-x-2-3-3-3-3-3-3-3-3-|
(strum really fast)    _______________

---------------------------0-----|
-------------------------0---0---|
-----------------------0-------0-|
-x-x-2-2-x-x-2-2-x-x-2-----------|
-x-x-2-2-x-x-2-2-x-x-2-----------|
-x-x-2-2-x-x-2-2-x-x-2-----------|
(strum really fast)

_______________________________________________________________

chorus-guitar1
---------------------------------------|
---------------------------------------|
---------------------------------------|
-x-x-2-2-x-x-2-2-x-x-2-3-3-3-3-3-3-3-3-|
-x-x-2-2-x-x-2-2-x-x-2-3-3-3-3-3-3-3-3-|
-x-x-2-2-x-x-2-2-x-x-2-3-3-3-3-3-3-3-3-|
(strum really fast)    _______________

---------------------------------------|
---------------------------------------|
---------------------------------------|
-x-x-2-2-x-x-2-2-x-x-2-3-3-3-3-3-3-3-3-|
-x-x-2-2-x-x-2-2-x-x-2-3-3-3-3-3-3-3-3-|
-x-x-2-2-x-x-2-2-x-x-2-3-3-3-3-3-3-3-3-|
(strum really fast)    _______________

---------------------------------------|
---------------------------------------|
---------------------------------------|
-x-x-2-2-x-x-2-2-x-x-2-3-3-3-3-3-3-3-3-|
-x-x-2-2-x-x-2-2-x-x-2-3-3-3-3-3-3-3-3-|
-x-x-2-2-x-x-2-2-x-x-2-3-3-3-3-3-3-3-3-|
(strum really fast)    _______________

-------------------0-0-0-0-|
-------------------0-0-0-0-|
-------------------0-0-0-0-|
-x-x-2-2-x-x-2-2-3-3-3-3-3-|
-x-x-2-2-x-x-2-2-3-3-3-3-3-|
-x-x-2-2-x-x-2-2-3-3-3-3-3-|

chorus-guitar2
---------------------------------------|
---------------------------------------|
---------------------------------------|
-x-x-2-2-x-x-2-2-x-x-2-3-3-3-3-3-3-3-3-|
-x-x-2-2-x-x-2-2-x-x-2-3-3-3-3-3-3-3-3-|
-x-x-2-2-x-x-2-2-x-x-2-3-3-3-3-3-3-3-3-|
(strum really fast)    _______________

---------------------------------------|
---------------------------------------|
---------------------------------------|
-x-x-2-2-x-x-2-2-x-x-2-3-3-3-3-3-3-3-3-|
-x-x-2-2-x-x-2-2-x-x-2-3-3-3-3-3-3-3-3-|
-x-x-2-2-x-x-2-2-x-x-2-3-3-3-3-3-3-3-3-|
(strum really fast)    _______________

---------------------------------------|
---------------------------------------|
---------------------------------------|
-x-x-2-2-x-x-2-2-x-x-2-3-3-3-3-3-3-3-3-|
-x-x-2-2-x-x-2-2-x-x-2-3-3-3-3-3-3-3-3-|
-x-x-2-2-x-x-2-2-x-x-2-3-3-3-3-3-3-3-3-|
(strum really fast)    _______________

---------------------------0-----|
-------------------------0---0---|
-----------------------0-------0-|
-x-x-2-2-x-x-2-2-x-x-2-----------|
-x-x-2-2-x-x-2-2-x-x-2-----------|
-x-x-2-2-x-x-2-2-x-x-2-----------|
(strum really fast)


Текст, аккорды и табулатура для песни "Mu Empire", исполняет "Glass Jaw".
Используемые в песне аккорды можно найти в разделе Как брать аккорды. Аккорды для шестиструнной гитары. Другие песни можно найти на нашем сайте, воспользовавшись алфавитным указателем вверху страницы.


Слушать онлайн Mu Empire


GlassjawMu Empire на Яндекс.Музыке


 
Ошибка в тексте? Выделите ошибку и нажмите Ctrl+Enter