Artist - GlassJAw
Song   - Last Kiss
Album  - n/a (Monster Zero Demo)
Tuning - DADGBE
Tabbed by David Diuguid (aka bmskate/DEFreak13)
Date: 12/21/01

pm... = palm mute
^#    = bend (to note of #)
r#    = release bend (to note of #)
s     = slide
/    = hammer on/off
 h = harmonic
(#)   = don't pick the note; slide down/up to that # or start at that # (relative, not approximate)


Verse [distortion]
pm.    .    .    .    .    .    .    .    .    .........
|--------------------------------------------------------|
|--------------------------------------------------------|
|--------------------------------------------------------|
|-0-1--0-1--0-1--0-1--0-1--0-1--0-1--0-1--0-1------------|
|-0-1--0-1--0-1--0-1--0-1--0-1--0-1--0-1--0-1------------|
|-0-1--0-1--0-1--0-1--0-1--0-1--0-1--0-1--0-1--0-0-0-0-0-|

|----------------------------------|
|----------------------------------|
|-77777777777777777777777777777777-|
|-88888888888888888888888888888888-|
|-55555555555555555555555555555555-|
|-55555555555555555555555555555555-|
                                                    pm.......     .......
|-----------------------------------------------------------------------------|
|-----------------------------------------------------------------------------|
|-777777777777777-----------------3333333333333333----------------------------|
|-8888888888888888888888888888888811111111111111114/5-0-0-0-0-4/5-0-0-0-0-5-4-|
|-5555555555555555888888888888888811111111111111114/5-0-0-0-0-4/5-0-0-0-0-5-4-|
|-5555555555555555888888888888888811111111111111114/5-0-0-0-0-4/5-0-0-0-0-5-4-|

|--------------------------------------------------------------------------------|
|--------------------------------------------------------------------------------|
|-6--------6--------6--6--6--------6--------6----------------------------6-6-----|
|-6--------6--------6--6--6--------6--------6----------------------------6-6-0-0-|
|-4--------4--------4--4--4--------4--------4----------5-5-5-------------4-4-0-0-|
|-4--0-0-0-4--0-0-0-4--4--4--0-0-0-4--0-0-0-4--0-4-4-4-------5-5-5-0-0-0-4-4-0-0-|

|---------------------------|
|---------------------------|
|-6-6-6-2-2-2-7-7-7-2-2-2-6-|
|-6-6-6-0-0-0-5-5-5-0-0-0-6-|
|-4-4-4-0-0-0-5-5-5-0-0-0-4-|
|-4-4-4-0-0-0-5-5-5-0-0-0-4-|


Chorus
|-----0-------0-------0-------0-------0-------0-------0--------0---|
|---7---7---7---7---8---8---8---8---7---7---7---7---8---8---8----8-|
|-7-------7-------9-------9-------7-------7-------5-------5--------|
|------------------------------------------------------------------|
|------------------------------------------------------------------|
|------------------------------------------------------------------|


Fill
|-----------------|
|-----------------|
|-----------------|
|-65-0-3/5-0-1/3-|
|-65-0-3/5-0-1/3-|
|-65-0-3/5-0-1/3-|

pm............................hhhh
|----------------------------------|
|----------------------------------|
|----------------------------------|
|-----------------------------4444-|
|-00000000000000000000000000004444-|
|-00000000000000000000000000004444-|


Interlude
pm.......................                   .......       .......
|-----------------------------------------|---------------------------0-0-0---|
|-----------------------------------------|-------------|-------------0-0-0-0-|
|-----------------------------------------|-------------|-------------0-0-0-0-|
|-------------------------65-0-3/5-0-1/3-|---------4/5-|---------4/5-5-5-5-5-|
|-------------------------65-0-3/5-0-1/3-|-0-0-0-0-4/5-|-0-0-0-0-4/5---5-----|
|-0-0-0-0-0-0-0-0-0-0-0-0-65-0-3/5-0-1/3-|-0-0-0-0-4/5-|-0-0-0-0-4/5---------|


comments: 	*definately a kickass favorite of mine by the JAw
		*why the hell didn't this appear on eyewtkas?


Текст, аккорды и табулатура для песни "Last Kiss", исполняет "Glass Jaw".
Используемые в песне аккорды можно найти в разделе Как брать аккорды. Аккорды для шестиструнной гитары. Другие песни можно найти на нашем сайте, воспользовавшись алфавитным указателем вверху страницы.


 
Ошибка в тексте? Выделите ошибку и нажмите Ctrl+Enter