Artist - GlassJAw
Song   - Flagburning Dakota
Album  - Kiss Kiss Bang Bang
Tuning - DADGBE
Tabbed by David Diuguid (aka bmskate/DEFreak13)
Date: 12/18/01

pm... = palm mute
^#    = bend (to note of #)
r#    = release bend (to note of #)
s     = slide
/    = hammer on/off
 h = harmonic
(#)   = don't pick the note; slide down/up to that # or start at that # (relative, not approximate)


Intro
|-------------------------|
|-------------------------|
|-----12--11--------------|
|-----0---0--(pickscrape)-|
|-0---0---0--(pickscrape)-|
|-0---0---0--(pickscrape)-|


Verse
|-2-2-2-2-2-2-------------------------|---------------|
|-5-5-5-5-5-5-------------------------|-7-------------|
|-4-4-4-4-4-4-7-7-7-7-7-7-7-7-7-7-7-7-|---4-----------| guitar 2
|-2-2-2-2-2-2-6-6-6-6-6-6-6-6-6-6-6-6-|-----9-8/98-6-| over guitar 1
|-2-2-2-2-2-2-6-6-6-6-6-6-6-6-6-6-6-6-|---------------|
|-2-2-2-2-2-2-6-6-6-6-6-6-6-6-6-6-6-6-|---------------|


Chorus
pm...............................
|---------------------------------2-2-2-2-2-2-2-2-2-2-2-2-2-2-2-2-|
|---------------------------------5-5-5-5-5-5-5-5-5-5-5-5-5-5-5-5-|
|---------------------------------5-5-5-5-5-5-5-5-5-5-5-5-5-5-5-5-|
|-2-2-2-2-2-2-2-2-2-3-3-3-3-3-3-3---------------------------------|
|-2-2-2-2-2-2-2-2-2-3-3-3-3-3-3-3---------------------------------|
|-2-2-2-2-2-2-2-2-2-3-3-3-3-3-3-3---------------------------------|

pm...         ...                   .   .   .   .   h
|---------------------------------|---------------|---|
|---------------------------------|---------------|---|
|---------------------------------|---------------|---|
|-2-2-2/32-0-0-2/32/2/3/5s6-|---------------|---|
|-2-2-2/32-0-0-2/32/2/3/5s6-|-0---0---0---0-|-5-|
|-2-2-2/32-0-0-2/32/2/3/5s6-|-0---0---0---0-|-5-|

pm............................... (only do this in 2nd chorus)
|-----------------------------------------------------------------|
|-----------------------------------------------------------------|
|---------------------------------7-7-7-7-7-7-7-7-7-7-7-7-7-7-7-7-|
|---------------------------------7-7-7-7-7-7-7-7-7-7-7-7-7-7-7-7-|
|---------------------------------5-5-5-5-5-5-5-5-5-5-5-5-5-5-5-5-|
|-0-0-0-0-0-0-0-0-0-0-0-0-0-0-0-0---------------------------------|


Fill
|---------------------------------|
|---------------------------------|
|-------------8-8-8-8-8-8-8-8-8-8-|
|-9-9-9-9-9-9-6-6-6-6-6-6-6-6-6-6-|
|-9-9-9-9-9-9-6-6-6-6-6-6-6-6-6-6-|
|-9-9-9-8-8-8-6-6-6-6-6-6-6-6-6-6-|


Interlude
|-2-2-2----------------------|
|-5-5-5----------------------|
|-4-4-4-------8-8-8--8--8--8-|
|-2-2-2-------6-6-6--6--6--6-|
|-2-2-2-------6-6-6--6--6--6-|
|-2-2-2-------6-6-6--6--6--6-|


Fill
|---------------------------------|
|---------------------------------|
|---------------------------------|
|-2-2-2-2-2-2-2-2-2-3-3-3-3-3-3-3-|
|-2-2-2-2-2-2-2-2-2-3-3-3-3-3-3-3-|
|-2-2-2-2-2-2-2-2-2-3-3-3-3-3-3-3-|


Interlude 2
|-------------2-2-2--2--2--2-|-2-|
|-------------5-5-5--5--5--5-|-5-|
|-8-8-8-------4-4-4--4--4--4-|-4-|
|-6-6-6-------2-2-2--2--2--2-|-2-|
|-6-6-6-------2-2-2--2--2--2-|-2-|
|-6-6-6-------2-2-2--2--2--2-|-2-|


If you have any questions or comments, contact me via e-mail [email protected] or on Instant Messenger 
DEFreak13


Текст, аккорды и табулатура для песни "Flagburning Dakota", исполняет "Glass Jaw".
Используемые в песне аккорды можно найти в разделе Как брать аккорды. Аккорды для шестиструнной гитары. Другие песни можно найти на нашем сайте, воспользовавшись алфавитным указателем вверху страницы.


 
Ошибка в тексте? Выделите ошибку и нажмите Ctrl+Enter